Song name
# A B C D E F G H I J K L M N O P Q R S T U V W X Y Z

Elefante - Ladron De Corazones tab

Intro

C#m    A     B      F#
C#m    A     F#


e|---------------------|
B|---------------------|
G|---------------------|
D|---------------------|
A|---4--2--------------|
E|---------4--2--0--2--|

e|--------------------------------------------------------------|
B|--------------------------------------------------------------|
G|--------------------------------------------------------------|
D|--------------------------------------------------------------|
A|-4~----7--4~-----7--7/9~---9--7-6-7--4~-----7--4~-----7--7/9~-|
E|-----4---------4-----------------------4---------4------------|



Versos

      C#m        F#
No buscaba mi destino
       C#m          F#
nunca oí a mi corazón
      C#m         F#
prisionero del olvido
         A               B
me escondí de ti  me aparte de vos


     C#m           F#
tropecé con el infierno
      C#m         F#
transité por el dolor
        C#m         F#
me atreví a lo imposible
         A                 B
y encontré tu amor  que me desarmó


Pre-Coro

   A         B
y nadie nos vió
      C#m           F#
desnudándonos la vida
     A        B
sin miedo sin ley.



CORO
        C#m           A
Lo prohibido sabe a gloria
           E                 B
no existe juicio ni existe perdón
        C#m        A
no me culpes por amarte
        E                  B
mejor enciérrame en tu prisión.

          C#m          F#         A
Como te atreves a llamarme,   ladrón
          A            B
Si tus ojos me han robado,
        C#m
el corazón

e|----------------------|
B|--5-5--4/5-5--5-4/5---|
G|--6-6--4/6-6--6-4/6---|  x3
D|----------------------| (esto se repite sobre el resto de coro)
A|----------------------|
E|----------------------|

F#               C#m
  ladrón de corazones
F#                   C#m
  como te atreves a decirme ladrón
F#               A
  ladrón de corazones.



Versos

      C#m       F#
Me tomaste por asalto
         C#m        F#
me despojaste del dolor
       C#m         F#
este amor es un milagro
     A              B
viviré por ti  moriré por ti


       C#m           F#
no buscaste en mi pasado
        C#m          F#
y el futuro no existió
       C#m            F#
la pasión nos dió la mano
       A                 B
dulce bendición que nos condenó



Pre-Coro

   A         B
y nadie nos vió
      C#m           F#
desnudándonos la vida
     A        B
sin miedo sin ley.



CORO
        C#m           A
Lo prohibido sabe a gloria
           E                 B
no existe juicio ni existe perdón
        C#m        A
no me culpes por amarte
        E                  B
mejor encierrame en tu prisión.

          C#m          F#         A
Como te atreves a llamarme,   ladróooooooon



e|-4------4------4---------|
B|---5------5------5-------|
G|-----6------6------6-----|
D|-------------------------| (esto se repite al fondo de este
A|-------------------------|  y el resto de coros y en el solo)
E|-------------------------|



SOLO

C#m     A      E      B  (4 veces)


e|-----------------------------------------------------------|
B|-----------------4--4-4--5--5-5--7--7-7--5--5-5--5/4-------|
G|-8b--8h6---4~----4--4-4--6--6-6--6--6-6--6--6-6------4-6~--|
D|---------6-------------------------------------------------|
A|-----------------------------------------------------------|
E|-----------------------------------------------------------|


e|-------------------4-7-------|
B|-----9----5-7--7-7-----------|
G|--6-------6-6----------------|
D|-----------------------------|
A|-----------------------------|
E|-----------------------------|



e|-/9-9---9---9-9--9-9---9--9-9--12--12-12------------------------------|
B|-/9-9---9---9-9--9-9---9--9-9--12--12-12------------------------------|
G|------6---6-------------------------------9--9-9-----------12---------|
D|------------------------------------------9--9-9--11b--11b-11--8b-6b--|
A|----------------------------------------------------------------------|
E|----------------------------------------------------------------------|


e|-----------------------------|
B|-----------------------------|
G|-----------------------------|
D|--4/6--6-7-6--4-6-6-4--------|
A|-----------------------4-----|
E|-----------------------------|



CORO
        C#m           A
Lo prohibido sabe a gloria
           E                 B
no existe juicio ni existe perdón
        C#m        A
no me culpes por amarte
        E                  B
mejor enciérrame en tu prisión.

          C#m          F#         A
Como te atreves a llamarme,   ladrón
          A            B
Si tus ojos me han robado,
        C#m
el corazón


Con Palm Muted
e|------------|---------------------|
b|-5------4---|----5---5------4-----|
g|---6--4---4-|-4----6---6--4---4---| (esto lo repite hasta
d|------------|---------------------|  el fin de la cancion)
a|------------|---------------------|
E|------------|---------------------|


F#               C#m
  ladrón de corazones
F#                   C#m
  como te atreves a decirme ladrón
F#               C#m
  ladrón de corazones

F#                   C#m
  como te atreves a decirme ladrón
F#               C#m
  ladrón de corazones.
F#                   C#m
  como te atreves a decirme ladrón
F#               C#m
  ladrón de corazones.
F#                C#m
 ohhuhoh   no  no.


ESTA MUY CHIDA LA ROLA Y BASTANTE SENCILLA...
Tap to rate this tab
# A B C D E F G H I J K L M N O P Q R S T U V W X Y Z