Song name
# A B C D E F G H I J K L M N O P Q R S T U V W X Y Z

Elefante - Sabor A Chocolate tab

CHocolate Hershys !!!! jajaja 

                        !!!!TqmMmMMmmmm Rub !!!!


INTRO



E------------------------------------------------------------|
B------------------------------------------------------------|
G-----------------2-2--2-2-2---------------------------------|
D-----2-2--2-2-2--0-3--0-0-3---------------------------------|
A-----0-3--0-0-3--------------2-2--2-2-2---------------------|
E-----------------------------0-4--0-0-4----5-5--3-3--1-1--0-|
(guitarra 2 toca riff 1 mientras guitarra 1
toca Lam, Rem, Mi, Lam x2)
riff 1
E-----5--5----8--8----7--7-----5--5---------------------|
B-----5--5----5--5----9--9-----5--5---------------------|
G-----5--5----5--5----9--9-----5--5---------------------| X2
D-----7--7----7--7----7--7-----7--7---------------------|
A-------------------------------------------------------|
E-------------------------------------------------------|
riff 2
E--------------------------------------------|
B--------------------------------------------|
G--------------------------------------------|
D--------------------------------------------|
A--------------------------------------------|
E--------5-5----3-3-----1-1---0--------------|

  Lam                   Rem
tienes unos ojos que me invitan a probarte

  Mi                 Lam (riff2)
piel de duraznillo corazn de chocolate

                        Rem
alma de manzana que me invita al paraso
     Mi                       Lam (riff2)
y un par de melones porque Dios as lo quiso





             Rem     Mi            Lam
porque te fuiste cuando es que volveras
           Rem        Mi               Fa       Sol
que cosa me diste, que no te podido olvidar  no no


E-------------------------|
B-------------------------|
G-------------------------|x3
D-------------------------|
A--0-0-3-0----------------|
E----------3-0-3-4--------|





   Lam               Rem
eres un tesoro escondido entre mi cama

  Mi                    Lam (riff2)
lluvia por la noche, solecito en la maana

                  Rem
aguita de coco, sirena en la playa

   Mi                 Lam (riff2)
mi sal, mi pimienta, mi nia mimada.


              Rem     Mi            Lam
 porque te fuiste cuando es que volveras
           Rem        Mi               Fa       Sol
que cosa me diste, que no te podido olvidar  no no



 Lam    Rem
llevame

  Mi          Lam
llevame a la luna

 Lam    Rem
llevame

  Mi       Lam
como t ninguna.

Se toca riff 1


E--------------    --------------------------|
B--------------    --------------------------|
G--------------    --2-2-2-2-----------------|
D-2-2-2-2------    --0-0-3-0-----------------|
A-0-0-3-0------    --------------------------|
E--------------    --------------------------|


me gusta vivir,    me gusta soar


E--------------    --------------------------|
B--------------    --------------------------|
G--------------    --------------------------|
D--------------    --------------------------|
A-2-2-2-2------    --------------------------|
E-0-0-4-0------    ----5---3----1----0-------|


que puedo pedir si he nacido pagozar


E--------------    --------------------------|
B--------------    --------------------------|
G--------------    --2-2-2-2-----------------|
D-2-2-2-2------    --0-0-3-0-----------------|
A-0-0-3-0------    --------------------------|
E--------------    --------------------------|



tu boca es mi vicio, tu amor mi aeropuerto

E--------------    --------------------------|
B--------------    --------------------------|
G--------------    --------------------------|
D--------------    --------------------------|
A-2-2-2-2------    --------------------------|
E-0-0-4-0------    ----5---3----1----0-------|


y mi pasaporte pasubir al cielo.



              Rem     Mi            Lam
 porque te fuiste cuando es que volveras
           Rem        Mi               Fa        Sol
que cosa me diste, que no te podido olvidar  bla bla ye


se toca riff 1 en el fondo

 Lam    Rem                  |
llevame                      |
                             |
  Mi          Lam            |
llevame a la luna            |--- x2
                             |
 Lam    Rem                  |
llevame                      |
                             |
  Mi       Lam               |
como t ninguna.             |


E----------------------------------------|
B----5--8--5--8--5--8--5--8--5---8-5-----|
G----------------------------------------|X2
D----------------------------------------|
A----------------------------------------|
E----------------------------------------|


E-------------------------------------------/12p10-------|
B-------8---8--10-10-10-----12--12--13--13---------10----|
G---9-9---9----------------------------------------------|
D--------------------------------------------------------|
A--------------------------------------------------------|
E--------------------------------------------------------|


E----------------------------8----8----8--------/12p10---|
B-------8---8h10-10-10----10---10---10----------------10-|
G---9-9---9----------------------------------------------|
D--------------------------------------------------------|
A--------------------------------------------------------|
E--------------------------------------------------------|



CORO



FINAL

   Lam

E---5--------------|
B----5-------------|
G-----5------------|
D------7-----------|
A-------7----------|
E--------5---------|
Tap to rate this tab
# A B C D E F G H I J K L M N O P Q R S T U V W X Y Z