Song name
# A B C D E F G H I J K L M N O P Q R S T U V W X Y Z

Elemeno P - Goodbye tab

Artist Name: Elemeno P 
Tab Name: Goodbye 

TABBED BY LENNIE
lennie_logan@yahoo.com


Intro:
e|------------------------------------------------------|
B|--------------------------------0-1-0-----------------|
G|------------0-----0-----2p0-------0---2-0--0-2\4-2p0--|
D|------0---2-----2-----2-----------2-------------------|
A|----2---3-----2-----0---------2---3-------------------|
E|--3-------------------------3-------------------------|

First verse:
e|------------------------------------------------------|
B|--------------------------------0-1-0-----------------|
G|o-----------0-----0-----2p0-------0---2-0--0-2\4-2p0-o|
D|o-----0---2-----2-----2-----------2------------------o|
A|----2---3-----2-----0---------2---3-------------------|
E|--3-------------------------3-------------------------|
Tap to rate this tab
 
# A B C D E F G H I J K L M N O P Q R S T U V W X Y Z