Guitaretab - guitar tabs
Song name
# A B C D E F G H I J K L M N O P Q R S T U V W X Y Z
Home / E / Elemeno P / Ohio tab

Elemeno P - Ohio tab

Tabbed by the slayer\ simon manu

Standard Tuning (e,B,G,D,A,E)

Ohio by Elemono p
This song is off the album trouble in paradise.
[ Tab from: http://www.guitaretab.com/e/elemeno-p/139737.html ]
Intro\ Slight distortion
e|-----------------------|----------------|
B|-----------------------|----------------|
G|--55-------------------|--55------------|
D|--33-0-55--------5555--|--33-0-55-------|
A|-------33-0-555--3333--|-------33-0--5--| HOLD THAT NOTE
E|------------333--------|-------------3--|


Verse 1
e|-----------------------|-----------|
B|-----------------------|-----------|
G|--5555-----------------|--5-----7--|
D|--3333-5555------5555--|--3-----5--|
A|-------3333-5555-3333--|-----------|
E|------------3333-------|-----------|                             
                                       
Hope you Enjoy it! 
Related for Ohio tab
Advertisement will be closed in 10 seconds