Song name
# A B C D E F G H I J K L M N O P Q R S T U V W X Y Z

Elemeno P - Weed Out tab

-------------------------------------------------------------------------------
			     WEED OUT - elemeno P
-------------------------------------------------------------------------------

Tuning:Standard

This Song has an electronic intro...

verse:	      prechorus:
e|-----------|-(pt.I)-|--(pt.II)--|
B|-----------|--------|-----------|
G|-----6--8--|--6--8--|-10-8-6-8--|
D|--6--6--8--|--6--8--|-10-8-6-8--|
A|--6--4--6--|--4--6--|--8-6-4-6--|
E|--4--------|--------|-----------|

chorus(pt.I):		    (pt.II)
e|-------------------------|-----------------|
B|-------------------------|-----------------|
G|-----------------6-6--8--|--6-----6--8--6--|
D|--6-6--6-6--6-6--6-6--8--|--6--6--6--8--6--|
A|--6-6--6-6--6-6--4-4--6--|--4--6--4--6--4--|
E|--4-4--4-4--4-4----------|-----4-----------|

bridge:
e|--------------|
B|--------------|
G|--------6--8--|
D|--6--8--6--8--|
A|--6--8--4--6--|
E|--4--6--------|

ORDER:
intro(electronic)
verse:x4
prechorus(pt.I):x3 \
prechorus(pt.II):x1/prechorus
chorus(pt.I):x2 \
chorus(pt.II):x1/chorus
verse:x4
prechorus:x1
chorus:x1
bridge:x3
chorus:x1
bridge: repeat to fade
Tap to rate this tab
# A B C D E F G H I J K L M N O P Q R S T U V W X Y Z