Guitaretab - guitar tabs
Song name
# A B C D E F G H I J K L M N O P Q R S T U V W X Y Z

Element Eighty - Sacrifice tab

Remember, this is an alternative way too play it. I figured it could be played this way, 
it's NOT the way Element Eighty plays it. Also remember,I'm a n00b at guitar


----------------------------------------|
----------------------------------------|
----------------------------------------|
-------7-7-575-5-454-4------------------|
------------------------66-66-66--------|
----------------------------------------|
                        ** ** **
[ Tab from: http://www.guitaretab.com/e/element-eighty/143837.html ]
----------------------------------------|
----------------------------------------|
----------------------------------------|
-------7-7-575-5-454-4-------7-22-22-22-|
-----------------------------7-22-22-22-|
-----------------------------5-00-00-00-|
                             ^ ** ** **

----------------------------------------|
----------------------------------------|
----------------------------------------|
-7-7-575-5-454-4-22-22-22---------------|
-7-7-575-5-454-4-22-22-22---------------|
-5-5-353-3-232-2-00-00-00---------------|
                 ** ** **

----------------------------------------|
----------------------------------------|
----------------------------------------|
-7-7-575-5-44-2-------------------------|
-7-7-575-5-44-2-------------------------|
-5-5-353-3-22-0-------------------------|
              

^=Whammy up/slide
*=mute
=let ring
Related for Sacrifice tab