Guitaretab - guitar tabs
Song name
# A B C D E F G H I J K L M N O P Q R S T U V W X Y Z

Element Eighty - Broken Promises tab

Title: Broken Promises

Artist: Element Eighty

Tuning: Drop C# (C#,G#,C#,F#,A#,D#)

Tabbed By BlackEmissions
Any problems Email Me at black_emissions@hotmail.com

Key
~  Vibrato
b  Bend
p  Pull-Off
h  Hammer On
\  Slide
.  Palm Mute
PS PickSlide

Intro
D#|------------------|
A#|------------------|
F#|-7-7-7-7-7-7----7-|
C#|-7-7-7-7-7-7----7-|
G#|-5-5-5-5-5-5----5-|
C#|------------------|


D#|------------------------------------------------------------------------|
A#|------------------------------------------------------------------------|
F#|-7-7-7-7-7-7----7--7-7-7-5-5------------------------------7-7-----------|
C#|-7-7-7-7-7-7----7--7-7-7-5-5-5-5--8-8-8-8-8-8----8--8-8-8-7-7-7-7-------|
G#|-5-5-5-5-5-5----5--5-5-5-3-3-5-5--8-8-8-8-8-8----8--8-8-8-5-5-7-7-------|
C#|-----------------------------5-5--8-8-8-8-8-8----8--8-8-8-----7-7-------|


D#|------------------------------------------------------------------------|
A#|------------------------------------------------------------------------|
F#|-7-7-7-7-7-7----7--7-7-7-5-5--------------------------------------------|
C#|-7-7-7-7-7-7----7--7-7-7-5-5-5-5--8-8-8-8-8-8-8-7\----------------------|
G#|-5-5-5-5-5-5----5--5-5-5-3-3-5-5--8-8-8-8-8-8-8-7\----------------------|
C#|-----------------------------5-5--8-8-8-8-8-8-8-7\----------------------|

Verse 1
    . . . . . .    .  . . . . . . .  . . . . . .    .  . . . . . . .
D#|------------------------------------------------------------------------|
A#|------------------------------------------------------------------------|
F#|-------------------------5-5------------------------------7-7-----------|
C#|-0-0-0-0-0-0----0--0-0-0-5-5-5-5--8-8-8-8-8-8----8--8-8-8-7-7-7-7-------|
G#|-0-0-0-0-0-0----0--0-0-0-3-3-5-5--8-8-8-8-8-8----8--8-8-8-5-5-7-7-------|
C#|-0-0-0-0-0-0----0--0-0-0-----5-5--8-8-8-8-8-8----8--8-8-8-----7-7-------|

    . . . . . .    .  . . . . . . .                      . . .
D#|------------------------------------------------------------------------|
A#|------------------------------------------------------------------------|
F#|-7-7-7-7-7-7----7--7-7-7-5-5--------------------------------------------|
C#|-7-7-7-7-7-7----7--7-7-7-5-5-5-5--8-8-8-8-8-8-8-7--7--0-0-0-------------|
G#|-5-5-5-5-5-5----5--5-5-5-3-3-5-5--8-8-8-8-8-8-8-7--7--0-0-0-------------|
C#|-----------------------------5-5--8-8-8-8-8-8-8-7--7--0-0-0-------------|

    . . . . . .    .  . . .          . . . . . .    .  . . . 
D#|------------------------------------------------------------------------|
A#|------------------------------------------------------------------------|
F#|-------------------------5--------------------------------7-------------|
C#|-0-0-0-0-0-0----0--0-0-0-5---5----8-8-8-8-8-8----8--8-8-8-7---7---------|
G#|-0-0-0-0-0-0----0--0-0-0-3---5----8-8-8-8-8-8----8--8-8-8-5---7---------|
C#|-0-0-0-0-0-0----0--0-0-0-----5----8-8-8-8-8-8----8--8-8-8-----7---------|

    . . . . . .    .  . . .          . . . . . .       
D#|------------------------------------------------------------------------|
A#|------------------------------------------------------------------------|
F#|-------------------------5----------------------------------------------|
C#|-0-0-0-0-0-0----0--0-0-0-5---5----8-8-8-8-8-8-8--7----------------------|
G#|-0-0-0-0-0-0----0--0-0-0-3---5----8-8-8-8-8-8-8--7----------------------|
C#|-0-0-0-0-0-0----0--0-0-0-----5----8-8-8-8-8-8-8--7----------------------|

Chorus

D#|------------------------------------------------------------------------|
A#|------------------------------------------------------------------------|
F#|-7-7-7-7-7-7----7--7-7-7-5-5------------------------------7-7-----------|
C#|-7-7-7-7-7-7----7--7-7-7-5-5-5-5--8-8-8-8-8-8----8--8-8-8-7-7-7-7-------|
G#|-5-5-5-5-5-5----5--5-5-5-3-3-5-5--8-8-8-8-8-8----8--8-8-8-5-5-7-7-------|
C#|-----------------------------5-5--8-8-8-8-8-8----8--8-8-8-----7-7-------|

                                                         . . .
D#|------------------------------------------------------------------------|
A#|------------------------------------------------------------------------|
F#|-7-7-7-7-7-7----7--7-7-7-5-5--------------------------------------------|
C#|-7-7-7-7-7-7----7--7-7-7-5-5-5-5--8-8-8-8-8-8-8-7--7--0-0-0-------------|
G#|-5-5-5-5-5-5----5--5-5-5-3-3-5-5--8-8-8-8-8-8-8-7--7--0-0-0-------------|
C#|-----------------------------5-5--8-8-8-8-8-8-8-7--7--0-0-0-------------|

D#|------------------------------------------------------------------------|
A#|------------------------------------------------------------------------|
F#|-7-7-7-7-7-7----7--7-7-7-5-5------------------------------7-7-----------|
C#|-7-7-7-7-7-7----7--7-7-7-5-5-5-5--8-8-8-8-8-8----8--8-8-8-7-7-7-7-------|
G#|-5-5-5-5-5-5----5--5-5-5-3-3-5-5--8-8-8-8-8-8----8--8-8-8-5-5-7-7-------|
C#|-----------------------------5-5--8-8-8-8-8-8----8--8-8-8-----7-7-------|


D#|------------------------------------------------------------------------|
A#|------------------------------------------------------------------------|
F#|-7-7-7-7-7-7----7--7-7-7-5-5--------------------------------------------|
C#|-7-7-7-7-7-7----7--7-7-7-5-5-5-5--8-8-8-8-8-8-8-7\----------------------|
G#|-5-5-5-5-5-5----5--5-5-5-3-3-5-5--8-8-8-8-8-8-8-7\----------------------|
C#|-----------------------------5-5--8-8-8-8-8-8-8-7\----------------------|

After Chorus Riff

D#|-------------------|
A#|-------------------|
F#|--7/19-19-19-19-19-|
C#|--X/-X--X--X--X--X-|
G#|--5/17-17-17-17-17-|
C#|-------------------|

Verse 2

    . . . . . .    .  . . . . . . .  . . . . . .    .  . . . . . . .
D#|------------------------------------------------------------------------|
A#|------------------------------------------------------------------------|
F#|-------------------------5-5------------------------------7-7-----------|
C#|-0-0-0-0-0-0----0--0-0-0-5-5-5-5--8-8-8-8-8-8----8--8-8-8-7-7-7-7-------|
G#|-0-0-0-0-0-0----0--0-0-0-3-3-5-5--8-8-8-8-8-8----8--8-8-8-5-5-7-7-------|
C#|-0-0-0-0-0-0----0--0-0-0-----5-5--8-8-8-8-8-8----8--8-8-8-----7-7-------|

                                                         . . .
D#|------------------------------------------------------------------------|
A#|------------------------------------------------------------------------|
F#|---------------------------5--------------------------------------------|
C#|-0-------------------------5--5---8-------------7-----0-0-0-------------|
G#|-0-------------------------3--5---8-------------7-----0-0-0-------------|
C#|-0----------------------------5---8-------------7-----0-0-0-------------|
[ Tab from: http://www.guitaretab.com/e/element-eighty/47042.html ]
    . . . . . .    .  . . .          . . . . . .    .  . . . 
D#|------------------------------------------------------------------------|
A#|------------------------------------------------------------------------|
F#|-------------------------5--------------------------------7-------------|
C#|-0-0-0-0-0-0----0--0-0-0-5---5----8-8-8-8-8-8----8--8-8-8-7---7---------|
G#|-0-0-0-0-0-0----0--0-0-0-3---5----8-8-8-8-8-8----8--8-8-8-5---7---------|
C#|-0-0-0-0-0-0----0--0-0-0-----5----8-8-8-8-8-8----8--8-8-8-----7---------|

    . . . . . .    .  . . .          . . . . . .       
D#|------------------------------------------------------------------------|
A#|------------------------------------------------------------------------|
F#|-------------------------5----------------------------------------------|
C#|-0-0-0-0-0-0----0--0-0-0-5---5----8-8-8-8-8-8-8--7----------------------|
G#|-0-0-0-0-0-0----0--0-0-0-3---5----8-8-8-8-8-8-8--7----------------------|
C#|-0-0-0-0-0-0----0--0-0-0-----5----8-8-8-8-8-8-8--7----------------------|


Chorus


Interlude                      
|------------------------------------------------------------|
|------------------------------------------------------------|
|-7---9-10--9--12-7------12-1015-15-15-15-15-15--1417~-----|
|-X---X--X--X---X-X--0----X--X--X--X--X--X--X--X---X--X------|
|-5---7--8--7--10-5--0---10--8-13-13-13-13-13-13--1215~-----|
|--------------------0---------------------------------------|

Bridge

D#|------------------------------------------------------------------------|
A#|------------------------------------------------------------------------|
F#|------------------------------------------------------------------------|
C#|-0----------------------------------------------------------------------|
G#|-0------------------------------------------------*-PS-*----------------|
C#|-0----------------------------------------------------------------------|

    . . . . . .    .  . . . . . . .  . . . . . .    .  . . . . . . .
D#|------------------------------------------------------------------------|
A#|------------------------------------------------------------------------|
F#|-------------------------5-5------------------------------7-7-----------|
C#|-0-0-0-0-0-0----0--0-0-0-5-5-5-5--8-8-8-8-8-8----8--8-8-8-7-7-7-7-------|
G#|-0-0-0-0-0-0----0--0-0-0-3-3-5-5--8-8-8-8-8-8----8--8-8-8-5-5-7-7-------|
C#|-0-0-0-0-0-0----0--0-0-0-----5-5--8-8-8-8-8-8----8--8-8-8-----7-7-------|

    . . . . . .    .  . . . . . . .                    
D#|------------------------------------------------------------------------|
A#|------------------------------------------------------------------------|
F#|-7-7-7-7-7-7----7--7-7-7-5-5--------------------------------------------|
C#|-7-7-7-7-7-7----7--7-7-7-5-5-5-5--8-8-8-8-8-8-8-7-----------------------|
G#|-5-5-5-5-5-5----5--5-5-5-3-3-5-5--8-8-8-8-8-8-8-7-----------------------|
C#|-----------------------------5-5--8-8-8-8-8-8-8-7-----------------------|

    . . . . . .    .
D#|------------------------------------------------------------------------|
A#|------------------------------------------------------------------------|
F#|-------------------------5-5------------------------------7-------------|
C#|-0-0-0-0-0-0----0--------5-5-5-5--8-8-8-8-8-8----8--------7--7----------|
G#|-0-0-0-0-0-0----0--------3-3-5-5--8-8-8-8-8-8----8--------5--7----------|
C#|-0-0-0-0-0-0----0------------5-5--8-8-8-8-8-8----8-----------7----------|

    . . . . . .    .                 . . . . . . .
D#|------------------------------------------------------15b16-------------|
A#|------------------------------------------------------------------------|
F#|-------------------------5-5--------------------------------------------|
C#|-0-0-0-0-0-0----0--------5-5-5-5--8-8-8-8-8-8-8-------------------------|
G#|-0-0-0-0-0-0----0--------3-3-5-5--8-8-8-8-8-8-8-------------------------|
C#|-0-0-0-0-0-0----0------------5-5--8-8-8-8-8-8-8-------------------------|

D#|------------------------------------------------------------------------|
A#|------------------------------------------------------------------------|
F#|-7-7-7-7-7-7----7--7-7-7-5-5--------------------------------------------|
C#|-7-7-7-7-7-7----7--7-7-7-5-5-5-5--8-8-8-8-8-8----8----------------------|
G#|-5-5-5-5-5-5----5--5-5-5-3-3-5-5--8-8-8-8-8-8----8----------------------|
C#|-----------------------------5-5--8-8-8-8-8-8----8----------------------|

    . . . . . .    .  . . .          . . . . . . .  . . .   . . .
D#|------------------------------------------------------------------------|
A#|------------------------------------------------------------------------|
F#|-------------------------5----------------------------------------------|
C#|-0-0-0-0-0-0----0--0-0-0-5---5----8-8-8-8-8-8-8--7-7-7---0-0-0----------|
G#|-0-0-0-0-0-0----0--0-0-0-3---5----8-8-8-8-8-8-8--7-7-7---0-0-0----------|
C#|-0-0-0-0-0-0----0--0-0-0-----5----8-8-8-8-8-8-8--7-7-7---0-0-0----------|

Chorus x4

Plus This Riff

D#|--17---15-13---12-10---8-6---5--|
A#|--------------------------------|
F#|--------------------------------|
C#|--------------------------------|
G#|--------------------------------|
C#|--------------------------------|

Outro
    . . . . . .    .
D#|----------------------15b16-----|
A#|--------------------------------|
F#|--------------------------------|
C#|--------------------------------|
G#|--------------------------------|
C#|-0-0-0-0-0-0----0---------------|



              !                                       !           
    __        R       __                    __        R       __
   /  \       !      /  \                  /  \       !      /  \
  |    |      O     |    |      TO        |    |      O     |    |
  |    |      !     |    |                |    |      !     |    |
  |    |      C     |    |      MUCH      |    |      C     |    |
  |    |      !     |    |                |    |      !     |    |
  |    |      K     |    |    !!ROCK!!    |    |      K     |    |
  |    |  ___  ___  |    |                |    |  ___  ___  |    |        
  |    | |   ||   | |    |      FOR       |    | |   ||   | |    |
  |    | |   ------ |    |                |    | ------   | |    |
  |    | |  / __  / |    |      ONE       |    | \  __ \  | |    |
  |    | | / / / /| |    |                |    | |\ \ \ \ | |    |
  |    | |/ /_/ /|| |    |    !!HAND!!    |    | ||\ \_\ \| |    |
  |    |-/     / ||-|    |                |    |-|| \     \-|    |
  |    |/     /|_|| |    |                |    | ||_|\     \|    |
  |    /     /|___|      |                |      |___|\     \    |
  |         /            |                |            \         |
   \       /            /                  \            \       /
    \                  /                    \                  /
     \                /                      \                /
Related for Broken Promises tab