Guitaretab - guitar tabs
Song name
# A B C D E F G H I J K L M N O P Q R S T U V W X Y Z

Element Eighty - Newton Trash tab

Newton Trash
By Element Eighty
Album: Mercuric
Tabbed by: Armando Puente Jr.
Tuning: Drop D flat

This was before the "Element Eighty" album, off of an album called Mercuric.


Riff 1                         |Last time   |
Eb|----------------------------|------------|
Bb|----------------------------|------------|
Gb|----------------------------|------------|
Db|0-0-6-5--0-0-3-0-0-2-3-2-0--|(0)/\-------|
Ab|0-0-6-5--0-0-3-0-0-2-3-2-0--|(0)/\-------|
Db|0-0-6-5--0-0-3-0-0-2-3-2-0--|(0)/\-------|
   * *      * *   * *      

Riff 2a (Clean with echo/delay)
Eb|-----------------|
Bb|-----------------|
Gb|--------8---8-7--|
Db|----7------------|
Ab|-----------------|
Db|7-7---7---7------|

Riff 2b
Eb|-----------------------------
Bb|-----------------------------
Gb|----7---------7--------------
Db|------7---------7------------
Ab|-------0----------0----------
Db|0---(0)---0----(0)--0--------

Riff 2a
Riff 2b: "I only think..."
Riff 2a: "When Im hard"
Riff 2b: "I only dream..."
Riff 2a: "When Im hard"
Riff 2b: "My heart is..."
Riff 2a: "Forever..."
Riff 2b: "I only dream..."

Fill for 2a
Eb|-----------------------------------------------------------
Bb|----5------------------------------------------------------
Gb|-----------------------------------------------------------
Db|--5--------------------------------------------------------
Ab|5----------------------------------------------------------
Db|-----------------------------------------------------------
   h h h

Riff 1: "Hey you..."
Repeat the variations of Riff 2 and 2a


Riff 3
Eb|----------------------------------------------|
Bb|----------------------------------------------|
Gb|----------------------------------------------|
Db|5-xxx-5-xx-5-x-5-xxxx-5-2-3-2-0-xxxx-0-xx-0---|
Ab|5-xxx-5-xx-5-x-5-xxxx-5-2-3-2-0-xxxx-0-xx-0---|
Db|5-xxx-5-xx-5-x-5-xxxx-5-2-3-2-0-xxxx-0-xx-0---|
                           * * * 
    "I'm only using.."

Fill 1 (Riff 3)
Eb|------------------------5-5-5---|
Bb|------------------------5-5-5---|
Gb|------------5-5-5-5-5-5---------|
Db|------------5-5-5-5-5-5---------|
Ab|5-5-5-5-5-5---------------------|
Db|5-5-5-5-5-5---------------------|
   h h h h h h h h h h h h h h h

Fill 2 (Riff 3)
Eb|----------------------------------|
Bb|----------------------------------|
Gb|----------------------------------|
Db|2-1-0-1-2-1-0-1-2-1-0-1-2-1-0-1---|
Ab|2-1-0-1-2-1-0-1-2-1-0-1-2-1-0-1---|
Db|2-1-0-1-2-1-0-1-2-1-0-1-2-1-0-1---|
   * * * * * * * * * * * * * * * *

Riff 4
Eb|-------------------|
Bb|-------------------|
Gb|-------------------|
Db|0-3-2-0(0)-(0)---|
Ab|0-3-2-0-(0)-(0)---|
Db|0-3-2-0-(0)-(0)---|
   * * * 
    "...complex..."
[ Tab from: http://www.guitaretab.com/e/element-eighty/48951.html ]
Riff 5
Eb|---------------------------------------------|
Bb|---------------------------------------------|
Gb|---------------------------------------------|
Db|0-3-2-0-3-2-0---0-3-2-0-3-2-0---0-3-2-0-3-2--|
Ab|0-3-2-0-3-2-0---0-3-2-0-3-2-0---0-3-2-0-3-2--|
Db|0-3-2-0-3-2-0---0-3-2-0-3-2-0---0-3-2-0-3-2-|
   * * * * * *     * * * * * *     * * * * * *
Eb|---------------------|
Bb|---------------------|
Gb|7-7------------------|
Db|x-x--0-3-2-0-3-2-0---|
Ab|5-5--0-3-2-0-3-2-0---|
Db|-----0-3-2-0-3-2-0---|
        * * * * * *
Riff 5a
Eb|------------------------------------|
Bb|------------------------------------|
Gb|------------------------------------|
Db|0-3-2-0-3-2-0-33-2-0-3-2---2--3-5---|
Ab|0-3-2-0-3-2-0-33-2-0-3-2---2--3-5---|
Db|0-3-2-0-3-2-0-33-2-0-3-2---2--3-5---|
   * * * * * * * ** * * * *
Eb|------------------------------------|
Bb|------------------------------------|
Gb|------------------------------------|
Db|0-3-2-0-3-2-0-33-2-0-3-2---3--2-3---|
Ab|0-3-2-0-3-2-0-33-2-0-3-2---3--2-3---|
Db|0-3-2-0-3-2-0-33-2-0-3-2---3--2-3---|
   * * * * * * * ** * * * *
Eb|------------------------------------|
Bb|------------------------------------|
Gb|------------------------------------|
Db|0-3-2-0-3-2-0-33-2-0-3-2---2--3-5---|
Ab|0-3-2-0-3-2-0-33-2-0-3-2---2--3-5---|
Db|0-3-2-0-3-2-0-33-2-0-3-2---2--3-5---|
   * * * * * * * ** * * * *
Eb|------------------------------------|
Bb|------------------------------------|
Gb|-------------------------------(5)--|
Db|0-3-2-0-3-2-0-33-2-0-3-2-(0)-------|
Ab|0-3-2-0-3-2-0-33-2-0-3-2-(0)-------|
Db|0-3-2-0-3-2-0-33-2-0-3-2-(0)-------|
   * * * * * * * ** * * * *        h  (Harmonic and feedback)

Riff 6                     Slide up and random vibratos
Eb|---------------------------------------------|
Bb|---------------------------------------------|
Gb|5--5-5-5--5-5-5-5-5-5------------------------|
Db|------------------------////////////-~~~~~---|
Ab|------------------------////////////-~~~~~---|
Db|------------------------////////////-~~~~~---|
   h  h h h  h h h h h h

Riff 7
Eb|------------------------|-5-----|
Bb|------------------------|-8b10--|
Gb|------------------------|-------|
Db|0--0-0-0-0-0-0-0-0-0---|-------|
Ab|0--0-0-0--0-0-0-0-0-0---|-------|
Db|0--0-0-0--0-0-0-0-0-0---|-------|
   *  * * *  * * * * * *
   "You're trash in..."

Eb|------------------------|-------|
Bb|------------------------|-------|
Gb|------------------------|-------|
Db|0--0-0-0-0-0-0-0-0-0---|3-2-3-2|
Ab|0--0-0-0--0-0-0-0-0-0---|3-2-3-2|
Db|0--0-0-0--0-0-0-0-0-0---|3-2-3-2|
   *  * * *  * * * * * *

Riff 8          x2                 
Eb|---------------|-----------------|
Bb|---------------|-----------------|
Gb|--------7------|--------8--------|
Db|----7-----7---7|----8-----8---8--|
Ab|5-5---5-----5--|6-6---6-----6----|
Db|---------------|-----------------|
   * * * * * * * * * * * * * * * *   

                     Fill
Eb|-----------------|-----------|
Bb|-----------------|-----------|
Gb|--------6--------|7b8r7b8r7--|
Db|----6-----6---6--|-----------|
Ab|4-4---4-----4----|-----------|
Db|-----------------|-----------|
   * * * * * * * *   a

Riff 7 Fill
Eb|----------------------17------|
Bb|----------------------20b22---|
Gb|------------------------------|
Db|0--0-0-0--0-0-0-0-0-0---------|
Ab|0--0-0-0--0-0-0-0-0-0---------|
Db|0--0-0-0--0-0-0-0-0-0---------|
   *  * * *  * * * * * *

Outro
Eb|--------------|
Bb|--------------|
Gb|--------------|
Db|3-2-0-3-2-0-0-|
Ab|3-2-0-3-2-0-0-|
Db|3-2-0-3-2-0-0-|
   * * * * * *

x   =  mute with fret-hand
*   =  palm mute
X\\ =  pick slide
h   =  hammer-on
p   =  pull-off
~   =  vibrato
t   =  finger tap
/   =  slide up
\   =  slide down
h.  =  natural harmonics
a   =  artificial harmonics
(9) =  ghost note
tm  =  trem picking
tr  =  trill

Any questions, dOwnstOnE@netscape.net  AIM: ScrewPsycopathic  
Enjoy!
Related for Newton Trash tab