Song name
# A B C D E F G H I J K L M N O P Q R S T U V W X Y Z

Element Eighty - Texas Cries tab

Intro:
Strum each chord except for the ones in pairs 3 times

E-----------------------------------------------------|
B-----------------------------------------------------|
G-11/13-15\11-13/9-11\88-66-44-66---------------------|
D-9-/11----9-----7----66-44-22-44---------------------|   x3
A-9-/11----9-----7----66-44-22-44---------------------|
D-9-/11----9-----7----66-44-22-44---------------------|


Verse:
"Texas Cries..."
E--------------------------------------|
B--------------------------------------|
G-----6~-------------------------------|
D-----6~-------------------------------|
A-00--4~-------------------------------|
D-00------------        ---------------|l
                                      l
"Inside.....But I fell you."          l-------| x2
E---------------------------------------------|         l
B----------------------------  ---------------|l
G-----------------9-8-------------------------|
D-x-6-7-----7-h-9-9-8-------------------------|
A-x-6-7-----7-h-9-7-6-------------------------|
D-x-6-7-----7-h-9-----------------------------|


"I dont know why...You run away...When i need you."
E-------------------------------------------------|
B-------------------------------------------------|
G-----------------------------------9-8-----------|
D------12\------12\-x-6---------7h9-9-8-----------|
A-0000-12\-0000-12\-x-6-0-000-0-7h9-7-6-----------|
D-0000-12\-0000-12\-x-6-0-000-0-7h9---------------|


"And I dont know why....You run away...Why did you,"
E-----------------------------------------------------|
B-----------------------------------------------------|
G------------------------------------------9-11-------|
D------12\------12\-x-6------9-p-7---6-h-7-9-11-------|
A-0000-12\-0000-12\-x-6-0000-9-p-7-0-6-h-7-7-9--------|
D-0000-12\-0000-12\-x-6-0000-9-p-7-0-6-h-7------------|


Chorus:
"Leave me.I thought you said you loved me. I thought you said you needed me. I guess I was wrong."
E--------------------------------------------------------------------|
B--------------------------------------------------------------------|
G--1313--131313131313--1111--111111111111--99---888-6-8-10/11\10--6--|
D--x-x---x-x-x-x-x-x---x-x---x-x-x-x-x-x---xx---xxx-x-x-x-/x-\x---x--|
A--1111--111111111111--9-9---9-9-9-9-9-9---77---666-4-6-8-/9-\8---4--|
D--------------------------------------------------------------------|

"Why did you leave me.I thought you said you loved me. I thought you said you needed me. 
guess I was wrong."
E-----------------------------------------------------------------|
B-----------------------------------------------------------------|
G-------9-8--------------------------------6-4-10/11\10--6--------|
D-7-h-9-9-8--------------------------------x-x-x-/x-\x---x--------|
A-7-h-9-7-6--0-000-00000-0-000-00000-0-000-4-2-8-/9-\8---4--------|
D-7-h-9------0-000-00000-0-000-00000-0-000------------------------|

Verse:
"Texas Cries..."
E--------------------------------------|
B--------------------------------------|
G-----6~-------------------------------|
D-----6~-------------------------------|
A-00--4~-------------------------------|
D-00------------        ---------------|l
                                      l
"Inside.....But I fell you."          l-------| x2
E---------------------------------------------|         l
B----------------------------  ---------------|l
G-----------------9-8-------------------------|
D-x-6-7-----7-h-9-9-8-------------------------|
A-x-6-7-----7-h-9-7-6-------------------------|
D-x-6-7-----7-h-9-----------------------------|


"I dont know why...You run away...When i need you."
E-------------------------------------------------|
B-------------------------------------------------|
G-----------------------------------9-8-----------|
D------12\------12\-x-6---------7h9-9-8-----------|
A-0000-12\-0000-12\-x-6-0-000-0-7h9-7-6-----------|
D-0000-12\-0000-12\-x-6-0-000-0-7h9---------------|


"And I dont know why....You run away...Why did you,"
E-----------------------------------------------------|
B-----------------------------------------------------|
G------------------------------------------9-11-------|
D------12\------12\-x-6------9-p-7---6-h-7-9-11-------|
A-0000-12\-0000-12\-x-6-0000-9-p-7-0-6-h-7-7-9--------|
D-0000-12\-0000-12\-x-6-0000-9-p-7-0-6-h-7------------|


Chorus:
"Leave me.I thought you said you loved me. I thought you said you needed me. I guess I was wrong."
E--------------------------------------------------------------------|
B--------------------------------------------------------------------|
G--1313--131313131313--1111--111111111111--99---888-6-8-10/11\10--6--|
D--x-x---x-x-x-x-x-x---x-x---x-x-x-x-x-x---xx---xxx-x-x-x-/x-\x---x--|
A--1111--111111111111--9-9---9-9-9-9-9-9---77---666-4-6-8-/9-\8---4--|
D--------------------------------------------------------------------|

"Why did you leave me.I thought you said you loved me. I thought you said you needed me. 
guess I was wrong."
E-----------------------------------------------------------------|
B-----------------------------------------------------------------|
G-------9-8--------------------------------6-4-10/11\10--6--------|
D-7-h-9-9-8--------------------------------x-x-x-/x-\x---x--------|
A-7-h-9-7-6--0-000-00000-0-000-00000-0-000-4-2-8-/9-\8---4--------|
D-7-h-9------0-000-00000-0-000-00000-0-000------------------------|

Fill:
"And now, as Im running out of rounds. As Im falling to the ground. Can you hear the 
cuase I need you know. As Im running out of rounds. As Im falling to the ground. Can you 
the sound, cause I need you KNOW."
E------------------------------------------------------------------|
B------------------------------------------------------------------|
G--------9--8--6--4----9--8--6--2----9-8-6-------9-8---------------|
D---12\--9--8--6--4-xx-9--8--6--2-xx-9-8-6-6-7h9-9-8---------------|  x2
A-0-12\--7--6--4--2-xx-7--6--4--0-xx-7-6-4-6-7h9-7-6---------------|
D-0-12\-------------xx------------xx-------6-7h9-------------------|

"Cause I need you....KNOW"
E----------------------------------------|
B----------------------------------------|
G----------------------------------9-8---|
D------9p7-----9p7-------9p7---7h9-9-8---|
A-0000-9p7-000-9p7-00000-9p7-0-7h9-7-6---|
D-0000-9p7-000-9p7-00000-9p7-0-7h9-------|


                           "Why did you..."
E------------------------------------------|
B------------------------------------------|
G----------------------------------9-11----|
D------9p7-----9p7-------9p7---7h9-9-11----|
A-0000-9p7-000-9p7-00000-9p7-0-7h9-7-9-----|
D-0000-9p7-000-9p7-00000-9p7-0-7h9---------|


Chorus:
"Leave me.I thought you said you loved me. I thought you said you needed me. I guess I was wrong."
E--------------------------------------------------------------------|
B--------------------------------------------------------------------|
G--1313--131313131313--1111--111111111111--99---888-6-8-10/11\10--6--|
D--x-x---x-x-x-x-x-x---x-x---x-x-x-x-x-x---xx---xxx-x-x-x-/x-\x---x--|
A--1111--111111111111--9-9---9-9-9-9-9-9---77---666-4-6-8-/9-\8---4--|
D--------------------------------------------------------------------|

"Why did you leave me.I thought you said you loved me. I thought you said you needed me. 
guess I was wrong."
E-----------------------------------------------------------------|
B-----------------------------------------------------------------|
G-------9-8--------------------------------6-4-10/11\10--6--------|
D-7-h-9-9-8--------------------------------x-x-x-/x-\x---x--------|    x2
A-7-h-9-7-6--0-000-00000-0-000-00000-0-000-4-2-8-/9-\8---4--------|
D-7-h-9------0-000-00000-0-000-00000-0-000------------------------|


"Texas Cries."
E---------------|
B---------------|
G-----6~--------|
D-----6~--------|
A-00--4~--------|
D-00------------|
Tap to rate this tab
# A B C D E F G H I J K L M N O P Q R S T U V W X Y Z