Song name
# A B C D E F G H I J K L M N O P Q R S T U V W X Y Z

Element Of Crime - Weisses Papier tab

Intro:
Dm                   Am                              Gm           F
--------10------12------13---------8------10-----12--------5H3----------3H1---|
-----10----10------10-----------10---10------10----------3-----3------1-----1-|
---10---------10------10------9---------9-------9------3------------2---------|
-0----------------------------------------------------------------------------|
----------------------------0-------------------------------------------------|
-----------------------------------------------------3------------1-----------|

B7            A
-------1------------0------------|
-----3---3--------2---2----------|
---1-------1----2-------2--------|
---------------------------------|
-1------------0------------------|
---------------------------------|

während der Strophe wird immer gleich zerlegt: p i m a m i (Daumen, Zeige-, Mittel-, 
Ring-, Mittel, Zeigefinger)

2xDm, 2xAm, Gm, F, B7, A (wie während der Strophe), dann 2xIntro

Dm (5.Bund)
Ich nehm' deine Katze und schüttel' sie aus
    Am (5.Bund)
bis alles herausfällt
        Gm                     F
was sie jemals aus meiner Hand fraß
  B7                       A
später klopf' ich noch den Teppich aus

    Dm
und find' ich ein Haar von mir darin
      Am
dann steck' ich es einfach ein
 Gm                     F
nichts soll dir böse Erinnerung sein
    B7                 A
verraten was ich dir gewesen bin

    B                       C
sag nicht daß das gar nicht nötig wär'
      C                       F
denn schmerzhaft wird es erst hinterher
              Gm                     Dm
wenn wieder hochkommt was früher mal war
      Gm                A7                  Dm (Intro)*
dann lieber so rein so dumm sein wie weißes Papier.

     Dm
Auch werd' ich in Zukunft ein and'rer sein
    Am
als der den du in mir sahst
    Gm                 F
die Hose die du mir gehäkelt hast
       B7                    A
tu ich in den Container der Heilarmee rein

       B                 C
ich eß auf dem Fußboden aus der Hand
         C                  F
seh' mir jeden Trickfilm im Fernseh'n an
          Gm                     Dm
alles was du nicht magst lobe ich mir
           Gm               A7                   Dm (Intro)
ich werd einfach so rein so dumm sein wie weißes Papier.


* Dm-Akkord ist der erste Akkord des Intros

Keine Ahnung warum das System die Akkorde nicht genau dahin setzt, wo ich sie hin haben will??
Tap to rate this tab
# A B C D E F G H I J K L M N O P Q R S T U V W X Y Z