Song name
# A B C D E F G H I J K L M N O P Q R S T U V W X Y Z

Elena Siegman - Beauty Of Annihilation tab

This is only the intro/chorus.  EDITED

Drop B Im not sure on the riff but I think it's the low open B string to start with. 

^-Bend 
\-Slide
h-Hammer On
p-Pull Off

E|-----------------------------------------------|
B|-----------------------------------------------|
G|-----------------------------------------------|
D|-----------------------------------------------|
A|2--5--7--9--9^10--9-7--5--9--9-9^10-9--9-9^10-9|
B|-----------------------------------------------|

E|----------------------------------------------------------------|
B|----------------------------------------------------------------|
G|-----------------------------------------11h-12p-11\-9h-11p--9--|
D|----------------------------------------------------------------|
A|--2--4--5------5--4--5--9-9^10-9--9-9^10------------------------|
B|-----------8----------------------------------------------------|

Adam Duggan
Tap to rate this tab
# A B C D E F G H I J K L M N O P Q R S T U V W X Y Z