Guitaretab - guitar tabs
Song name
# A B C D E F G H I J K L M N O P Q R S T U V W X Y Z

Elena Siegman - Lullaby For A Dead Man tab

Lullaby for a Dead Man
featured in Call of Duty: World at War's Nazi Zombie mode.
(nacht der untoten death song)
(verruckt easter egg song)


written, produced, mixed,
and all instruments performed by Kevin Sherwood at Treyarch.
http://www.facebook.com/pages/Kevin-Sherwood/119272406300?ref=nf
http://twitter.com/newdnewbs

Vocals by Elena Siegman
http://www.facebook.com/pages/Elena-Siegman/110770233598?ref=sgm
http://twitter.com/elenaYAY

Vocal Engineering Collin Ayers

Mastered by Oscar Zambrano at
http://zampolproductions.com

Additional production by Brian Tuey.  Treyarch's Audio director
http://briantuey.blogspot.com/


*******************************************************************
Transposition:
I have this transcribed for an 8 string guitar that is tuned down a
1/2 step.  This is what I originally used for the song.  I realize
that most people probably don't have an 8 string so if you want to
play the song on a six string then you will ahve to transpose the
6th and 7th strings in my tablature.

example of octave transposition (its pretty easy I promise)

So this is the intro that you'll see below.  The only parts you'll
have to transpose are the rhythm parts on the top strings.  To
transpose an octave you just move 2 strings down and 2 frets up.
I included an example below.
Intro (original on 8 string)

  p.m.(rhythm only)------------------------------------------------

Eb--------------------------------|
Bb--------7---7---7---7---9---9---|
Gb7---7-------------7---7---9-----|
Db--9---9---8---8---------------9-|
Ab--------------------------------|
Eb--------------------------------|
Bb--------7-7-7-7---------5-5-5-5-|
F 5-5-5-5---------8-8-8-8---------|


Intro (transposed for 6 string string)

  p.m.(rhythm only)------------------------------------------------

Eb--------------------------------|
Bb--------7---7---7---7---9---9---|
Gb7---7-------------7---7---9-----|
Db--9---9---8---8---------------9-|
Ab--------9-9-9-9---------7-7-7-7-|
Eb7-7-7-7---------10101010--------|


Lead and Rhythm parts:
I also decided to put the lead and rhythm guitars together rather
than dobuling the amount of space it takes to write it.  It's
pretty obvious which parts are which.

Rhytm:
I decided to count each "-" as a 16th note.  For the most part this
worked out fine but when notes are on frets in double digits like
10, 11, 12, etc then I remove a "-" to keep my borders even.  If
you see some thing like -44- then this means 2 16th notes played
on the 4th fret.  I assume you wouldn't mistake it for the 44th
fret but I want to be clear just in case.

Contact:
If you feel I have made any mistakes, typos, or you just want to
say hi feel free to conact me at my facebook fan page or my
twitter.

http://www.facebook.com/pages/Kevin-Sherwood/119272406300?ref=nf
http://twitter.com/newdnewbs


*******************************************************************


Intro

  p.m.(rhythm only)------------------------------------------------

Eb--------------------------------|---------------------------------|
Bb--------7---7---7---7---9---9---|--------7---7---7---7---10--11---|
Gb7---7-------------7---7---9-----|7---7-------------7---7----------|
Db--9---9---8---8---------------9-|--9---9---8---8-----------11--11-|
Ab--------------------------------|---------------------------------|
Eb--------------------------------|---------------------------------|
Bb--------7-7-7-7---------5-5-5-5-|----------------3-3-3-3----------|
F 5-5-5-5---------8-8-8-8---------|5-5-5-5-0-0-0-0---------3-3-3-4--|

verse1

  p.m.-------------------------------------------         ---------

Eb--------------------------------|--------------------------------|
Bb--------------------------------|--------------------------------|
Gb--------------------------------|--------------------------------|
Db--------------------------------|--------------------------------|
Ab--------------------------------|--------------------------------|
Eb--------------------------------|7-7-7-7-7-7-7-7-7-7-7-7-7-7-7-7-|
Bb--------------------------------|5-5-5-5-5-5-5-5-5-5-5-5-5-5-5-5-|
F 5-5-5-5-5-5-5-5-5-5-5-5-5-5-5-5-|--------------------------------|


  p.m.-------------------------------------------

Eb--------------------------------|--------------------------------|
Bb--------------------------------|--------------------------------|
Gb--------------------------------|--------------------------------|
Db--------------------------------|--------------------------------|
Ab--------------------------------|--------------------------------|
Eb--------------------------------|7-7-7-7-7-7-7-7-9-9-9-9-9-9-9-9-|
Bb--------------------------------|5-5-5-5-5-5-5-5-7-7-7-7-7-7-7-7-|
F 5-5-5-5-5-5-5-5-5-5-5-5-5-5-5-5-|--------------------------------|


  p.m.(rhythm only)---------------

Eb--------------------------------|
Bb--------------------------------|
Gb----4-4-------------6-6---------|
Db------------4---------------7---|
Ab--------------------------------|
Eb--------------------------------|
Bb--------------------------------|
F 1-1-1-1-1-1-1-1-3-3-3-3-3-3-3-4-|


chorus1

  p.m.(rhythm only)------------------------------------------------

Eb--------------------------------|--------------------------------|
Bb--------------------------------|--------------------------------|
Gb--------------------------------|--------------------------------|
Db--------------------------------|----------------42--------------|
Ab----5---4-2-1---5-------2-------|----5---4-21--4---------4---124-|
Eb--------------------------------|--------------------------------|
Bb--------7-7-7-7---------5-5-5-5-|--------7-7-7-7---------5-5-5-5-|
F 5-5-5-5---------8-8-8-8---------|5-5-5-5---------8-8-8-8---------|


  p.m.------------

Eb----------------|
Bb----------------|
Gb----------------|
Db--------2-------|
Ab4-454-2---5-4-2-|
Eb----------------|
Bb----------------|
F 1-1-1/\-0-0---5-|

  p.m.(rhythm only)------------------------------------------------

Eb--------------------------------|---------------------------------|
Bb--------7---7---7---7---9---9---|--------7---7---7---7---10--11---|
Gb7---7-------------7---7---9-----|7---7-------------7---7----------|
Db--9---9---8---8---------------9-|--9---9---8---8-----------11--11-|
Ab--------------------------------|---------------------------------|
Eb--------------------------------|---------------------------------|
Bb--------7-7-7-7---------5-5-5-5-|----------------3-3-3-3----------|
F --5-5-5---------8-8-8-8---------|5-5-5-5-0-0-0-0---------3-3-3-4--|

verse2 (identical to verse 1)


chorus2

  p.m.(rhythm only)------------------------------------------------
[ Tab from: http://www.guitaretab.com/e/elena-siegman/194096.html ]
Eb--------------------------------|--------------------------------|
Bb--------------------------------|--------------------------------|
Gb--------------------------------|--------------------------------|
Db--------------------------------|----------------42--------------|
Ab----5---4-2-1---5-------2-------|----5---4-21--4---------4-------|
Eb--------------------------------|--------------------------------|
Bb--------7-7-7-7---------5-5-5-5-|--------7-7-7-7---------5-5-5-5-|
F 5-5-5-5---------8-8-8-8---------|5-5-5-5---------8-8-8-8---------|


  p.m.(rhythm only)------------------------------------------------

Eb--------------------------------|--------------------------------|
Bb--------------------------------|--------------------------------|
Gb--------------------------------|--------------------------------|
Db--------------------------------|----------------42--------------|
Ab----5---4-2-1---5-------2-------|----5---4-21--4---------4---124-|
Eb--------------------------------|--------------------------------|
Bb--------7-7-7-7---------5-5-5-5-|--------7-7-7-7---------5-5-5-5-|
F 5-5-5-5---------8-8-8-8---------|5-5-5-5---------8-8-8-8---------|

  p.m.------------

Eb----------------|
Bb----------------|
Gb----------------|
Db--------2-------|
Ab4-454-2---5-4-5-|
Eb----------------|
Bb----------------|
F 1-1-1/\-0-0---1-|

bridge

  p.m.(rhythm only)------------------------------------------------

Eb--------------------------------|--------------------------------|
Bb----------------------3---------|----------3---------------------|
Gb----4-4---------4--4----6-44----|------4-------6-----------------|
Db------------------4-------------|----5---------------------------|
Ab--------------------------------|--------------------------------|
Eb--------------------------------|--------------------------------|
Bb--------------------------------|--------------------------------|
F --1-1-1-1-1-1-1-5-5-5-5-5-5-5-5-|1-1-1-1-1-1-1-1-5-5-5-5-5-5-5-5-|


  p.m.(rhythm only)------------------------------------------------

Eb--------------------------------|--------------------------------|
Bb----------------------3---------|----------3---------------------|
Gb----4-4---------4--4----6-44----|------4-------6-----------------|
Db------------------4-------------|----5---------------------------|
Ab--------------------------------|--------------------------------|
Eb--------------------------------|--------------------------------|
Bb--------------------------------|--------------------------------|
F 1-1-1-1-1-1-1-1-5-5-5-5-5-5-5-5-|1-1-1-1-1-1-1-1-0-0-0-0-0-0-0-0-|

breakdown piano arranged for guitar: play several times

Eb7-----7-9-----9-10----107-----7-|
Bb----7-------7-------7-------7---|
Gb--7-------9-------9-------9-----|
Db9-------------------------------|
Ab--------9-----------------------|
Eb----------------10------12------|
Bb--------------------------------|
F --------------------------------|

outro chorus (continue playing breakdown piano section until outro)

  p.m.(rhythm only)------------------------------------------------

Eb--------------------------------|--------------------------------|
Bb--------------------------------|--------------------------------|
Gb--------------------------------|--------------------------------|
Db--------------------------------|----------------42--------------|
Ab----5---4-2-1---5-------2-------|----5---4-21--4---------4-------|
Eb--------------------------------|--------------------------------|
Bb--------7-7-7-7---------5-5-5-5-|--------7-7-7-7---------5-5-5-5-|
F 5-5-5-5---------8-8-8-8---------|5-5-5-5---------8-8-8-8---------|


  p.m.(rhythm only)------------------------------------------------

Eb--------------------------------|--------------------------------|
Bb--------------------------------|--------------------------------|
Gb--------------------------------|--------------------------------|
Db--------------------------------|----------------42--------------|
Ab----5---4-2-1---5-------2-------|----5---4-21--4---------4-------|
Eb--------------------------------|--------------------------------|
Bb--------7-7-7-7---------5-5-5-5-|--------7-7-7-7---------5-5-5-5-|
F 5-5-5-5---------8-8-8-8---------|5-5-5-5---------8-8-8-8---------|

Play intro melody until outro.

  p.m.(rhythm only)------------------------------------------------

Eb--------------------------------|--------------------------------|
Bb--------------------------------|--------------------------------|
Gb--------------------------------|--------------------------------|
Db--------------------------------|----------------42--------------|
Ab----5---4-2-1---5-------2-------|----5---4-21--4---------4-------|
Eb--------------------------------|--------------------------------|
Bb--------7-7-7-7---------5-5-5-5-|--------7-7-7-7---------5-5-5-5-|
F 5-5-5-5---------8-8-8-8---------|5-5-5-5---------8-8-8-8---------|


  p.m.(rhythm only)------------------------------------------------

Eb--------------------------------|--------------------------------|
Bb--------------------------------|--------------------------------|
Gb--------------------------------|--------------------------------|
Db--------------------------------|----------------42--------------|
Ab----5---4-2-1---5-------2-------|----5---4-21--4---------4---124-|
Eb--------------------------------|--------------------------------|
Bb--------7-7-7-7---------5-5-5-5-|--------7-7-7-7---------5-5-5-5-|
F 5-5-5-5---------8-8-8-8---------|5-5-5-5---------8-8-8-8---------|


Outro

Eb----------------|----------------|----------------|
Bb----------------|----------------|----------------|
Gb----------------|----------------|----------------|
Db--------2-----5-|--4-2---4-2-----|--------2-------|
Ab4-454-2---5-45--|------54------4-|--454-2---5-----|
Eb----------------|----------------|----------------|
Bb----------------|----------------|----------------|
F 1-1-1/\-0-0---1-|--1-1/\-0-0---1-|--1-1/\-0-0-----|


Lyrics

Lullaby for a dead man

Verse1
Life is still spinning.  Your
End my beginning and
Everything I hoped for has been strangely set aside.

Reason for living.  My
Mind is forgiving and
Destiny is proving to be absent from my life

Pre-chorus
I know it
I feel it

Chorus
I know when youíre sleeping.
I know the things youíre dre-aming and I know
You will never give up and die.

Verse2
Conscious fulfilling.  The
Darkness revealing all
Faults and insecurities are shinning like the sun.

Eyes are deceiving.  Your
Mind will stop breathing and
All that you are made of will now rightly become mine.

Pre-chorus
You know it
You feel it

Chorus
I know when youíre sleeping
I know the things youíre dre-aming
I love when youíre weeping.
Even death canít stop this fe-eling and I know
You will never give up and

Bridge
Die.  Father!  Why have you forsaken me?
My life is gone.
Father!  You know how long itís taken me.
I live again.

End chorus
I know when youíre sleeping
I know the things youíre dre-aming
I love when youíre weeping.
Even death canít stop this fe-eling

I know when youíre sleeping
I know the things youíre dre-aming
I love when youíre weeping.
Even death canít stop this fe-eling.  And I know

You will never give up no-o
You will ne-ver-er give up
You will never give up
Aaaaaaaaaaaaaaaaaaaaaand
diiiiiiiiiiiie
Related for Lullaby For A Dead Man tab