Guitaretab - guitar tabs
Song name
# A B C D E F G H I J K L M N O P Q R S T U V W X Y Z

Elena Siegman - The One tab

The One
featured in Call of Duty: World at War's Nazi Zombie mode.
(Verruckt death song)
(Shi No Numa easter egg song)


written, produced, mixed,
and all instruments performed by Kevin Sherwood at Treyarch.
http://www.facebook.com/pages/Kevin-Sherwood/119272406300?ref=nf
http://twitter.com/newdnewbs

Vocals by Elena Siegman
http://www.facebook.com/pages/Elena-Siegman/110770233598?ref=sgm
http://twitter.com/elenaYAY

Vocal Engineering Collin Ayers

Mastered by Oscar Zambrano at
http://zampolproductions.com

Additional production by Brian Tuey.  Treyarch's Audio director
http://briantuey.blogspot.com/


*******************************************************************
Transposition:
I have this transcribed for an 8 string guitar that is tuned down a
whole step.  This is what I originally used for the song.  I realize
that most people probably don't have an 8 string so if you want to
play the song on a six string then you will ahve to transpose the
6th and 7th strings in my tablature.

example of octave transposition (its pretty easy I promise)

So this is the intro that you'll see below.  The only parts you'll
have to transpose are the rhythm parts on the top strings.  To
transpose an octave you just move 2 strings down and 2 frets up.
I included an example below.
Intro (original on 8 string)

  p.m.(rhythm only)------------------------------------------------

Eb--------------------------------|
Bb--------7---7---7---7---9---9---|
Gb7---7-------------7---7---9-----|
Db--9---9---8---8---------------9-|
Ab--------------------------------|
Eb--------------------------------|
Bb--------7-7-7-7---------5-5-5-5-|
F 5-5-5-5---------8-8-8-8---------|


Intro (transposed for 6 string string)

  p.m.(rhythm only)------------------------------------------------

Eb--------------------------------|
Bb--------7---7---7---7---9---9---|
Gb7---7-------------7---7---9-----|
Db--9---9---8---8---------------9-|
Ab--------9-9-9-9---------7-7-7-7-|
Eb7-7-7-7---------10101010--------|


Lead and Rhythm parts:
I also decided to put the lead and rhythm guitars together rather
than dobuling the amount of space it takes to write it.  It's
pretty obvious which parts are which.

Rhytm:
I decided to count each "-" as a 16th note.  For the most part this
worked out fine but when notes are on frets in double digits like
10, 11, 12, etc then I remove a "-" to keep my borders even.  If
you see some thing like -44- then this means 2 16th notes played
on the 4th fret.  I assume you wouldn't mistake it for the 44th
fret but I want to be clear just in case.

Contact:
If you feel I have made any mistakes, typos, or you just want to
say hi feel free to conact me at my facebook fan page or my
twitter.

http://www.facebook.com/pages/Kevin-Sherwood/119272406300?ref=nf
http://twitter.com/newdnewbs


*******************************************************************


Intro clean guitar fx
play 4X -------------------------

D20------20------20------20------|
A--18--18--18--18--18--18--18--18|
F----21------21------18------18--|
C--------------------------------|
G--------------------------------|
D--------------------------------|
A--------------------------------|
E--------------------------------|


guitar 1

D----20------20------20------20--|----20------20------20------20---|
A--20--20--20--20--20--20--20--20|--18--18--18--18--18--18--18--18-|
F22------22------21------21------|18------18------18------18-------|
C--------------------------------|---------------------------------|
G--------------------------------|---------------------------------|
D--------------------------------|---------------------------------|
A--------------------------------|---------------------------------|
E--------------------------------|---------------------------------|
				 |
guitar 2			 |
				 |
D--------------------------------|--------------------------------|
A5-7---7-5-7---7-7-8---8-8-3---3-|3-5---5-------------------7---7-|
F--------------------------------|--------------------------------|
C2-4---4-2-4---4-4-5---5-5-0---0-|0-2---2-------------------4---4-|
G--------------------------------|--------------------------------|
D--------------------------------|--------------------------------|
A--------------------------------|--------------------------------|
E--------------------------------|--------------------------------|
				 |
guitar 3			 |
				 |
D--------------------------------|--------------------------------|
A--------------------------------|--------------------------------|
F--------------------------------|--------------------------------|
C--------------------------------|--------------------------------|
G--------------------------------|--------------------------------|
D7-7-7-7-7-7-7-7-1010101010101010|3-3-3-3-3-3-3-3-3-3-3-3-3-3-3-3-|
A5-5-5-5-5-5-5-5-8-8-8-8-8-8-8-8-|1-1-1-1-1-1-1-1-1-1-1-1-1-1-1-1-|
E--------------------------------|--------------------------------|

guitar 1

D----20------20------20------20--|----20------20------20------20---|
A--20--20--20--20--20--20--20--20|--18--18--18--18--18--18--18--18-|
F22------22------21------21------|18------18------18------18-------|
C--------------------------------|---------------------------------|
G--------------------------------|---------------------------------|
D--------------------------------|---------------------------------|
A--------------------------------|---------------------------------|
E--------------------------------|---------------------------------|
				 |
guitar 2			 |
				 |
D--------------------------------|--------------------------------|
A5-7---7-5-7---7-7-8---8-8-10--10|105---5-------------------------|
F--------------------------------|--------------------------------|
C2-4---4-2-4---4-4-5---5-5-7---7-|7-2---2-------------------------|
G--------------------------------|--------------------------------|
D--------------------------------|--------------------------------|
A--------------------------------|--------------------------------|
E--------------------------------|--------------------------------|
				 |
guitar 3		         |
				 |
D--------------------------------|--------------------------------|
A--------------------------------|--------------------------------|
F--------------------------------|--------------------------------|
C--------------------------------|--------------------------------|
G--------------------------------|--------------------------------|
D7-7-7-7-7-7-7-7-1010101010101010|3-3-3-3-3-3-3-3-3-3-3-3-3-3-3-3-|
A5-5-5-5-5-5-5-5-8-8-8-8-8-8-8-8-|1-1-1-1-1-1-1-1-1-1-1-1-1-1-1-1-|
E--------------------------------|--------------------------------|

Verse 1

guitar 1 (clean w echo left side)

D8-9-108-8-9-8-9-8-9-108-8-9-8-9-|8-9-108-8-9-8-9-8-9-108-8-9-8-9-|
A--------------------------------|--------------------------------|
F--------------------------------|--------------------------------|
C--------------------------------|--------------------------------|
G--------------------------------|--------------------------------|
D--------------------------------|--------------------------------|
A--------------------------------|--------------------------------|
E--------------------------------|--------------------------------|
				 |
guitar 2 (clean w echo right side|
				 |
D6-------------------------------|6-------------------------------|
A--------4-----------------------|--------4-----------------------|
F----------------7---------------|----------------7---------------|
C--------------------------------|--------------------------------|
G--------------------------------|--------------------------------|
D--------------------------------|--------------------------------|
A--------------------------------|--------------------------------|
E--------------------------------|--------------------------------|
				 |
guitar 3 (dist.  w echo)	 |
				 |
D--------------------------------|--------------------------------|
A--------------------------------|--------------------------------|
F--------------------------------|--------------------------------|
C--------------------------------|--------------------------------|
G--------------------------------|--------------------------------|
D--------------------------------|--------------------------------|
A--------------------------------|--------------------------------|
E0-------------------------------|------------------------------1-|


guitar 1 (clean w echo left side)

D8-9-108-8-9-8-9-8-9-108-8-9-8-9-|8-9-108-8-9-8-9-8-9-108-8-9-8-9-|
A--------------------------------|--------------------------------|
F--------------------------------|--------------------------------|
C--------------------------------|--------------------------------|
G--------------------------------|--------------------------------|
D--------------------------------|--------------------------------|
A--------------------------------|--------------------------------|
E--------------------------------|--------------------------------|
				 |
guitar 2 (clean w echo right side|
				 |
D6-------------------------------|6-------------------------------|
A--------4-----------------------|--------4-----------------------|
F----------------4---------------|----------------7---------------|
C--------------------------------|--------------------------------|
G--------------------------------|--------------------------------|
D--------------------------------|--------------------------------|
A--------------------------------|--------------------------------|
E--------------------------------|--------------------------------|
				 |
guitar 3 (dist.  w echo)	 |
				 |
D--------------------------------|--------------------------------|
A--------------------------------|--------------------------------|
F--------------------------------|--------------------------------|
C--------------------------------|--------------------------------|
G--------------------------------|--------------------------------|
D--------------------------------|--------------------------------|
A--------------------------------|--------------------------------|
E0-------------------------------|------------------------------1-|

guitar 1 (clean w echo left side)

D8-9-108-8-9-8-9-8-9-108-8-9-8-9-|8-9-108-8-9-8-9-8-9-108-8-9-8-9-|
A--------------------------------|--------------------------------|
F--------------------------------|--------------------------------|
C--------------------------------|--------------------------------|
G--------------------------------|--------------------------------|
D--------------------------------|--------------------------------|
A--------------------------------|--------------------------------|
E--------------------------------|--------------------------------|
				 |
guitar 2 (clean w echo right side|
				 |
D----------------13--------------|----------------13--------------|
A--------9-----------------------|--------9-----------------------|
F9-------------------------------|9-------------------------------|
C--------------------------------|--------------------------------|
G--------------------------------|--------------------------------|
D--------------------------------|--------------------------------|
A--------------------------------|--------------------------------|
E--------------------------------|--------------------------------|
				 |
guitar 3 (dist.  w echo)	 |
				 |
D--------------------------------|--------------------------------|
A--------------------------------|--------------------------------|
F--------------------------------|--------------------------------|
C--------------------------------|--------------------------------|
G--------------------------------|--------------------------------|
D--------------------------------|--------------------------------|
A--------------------------------|--------------------------------|
E2-----------------------------1-|------------------------------1-|
            (pre_bend release) |\


guitar 1 (clean w echo left side)

D8-9-108-8-9-8-9-8-9-108-8-9-8-9-|8-9-108-8-9-8-9-8-9-108-8-9-8-9-|
A--------------------------------|--------------------------------|
F--------------------------------|--------------------------------|
C--------------------------------|--------------------------------|
G--------------------------------|--------------------------------|
D--------------------------------|--------------------------------|
A--------------------------------|--------------------------------|
E--------------------------------|--------------------------------|
				 |
guitar 2 (clean w echo right side|
				 |
D6-------------------------------|----------------13--------------|
A--------4-----------------------|--------9-----------------------|
F----------------4---------------|9-------------------------------|
C--------------------------------|--------------------------------|
G--------------------------------|--------------------------------|
D--------------------------------|--------------------------------|
A--------------------------------|--------------------------------|
E--------------------------------|--------------------------------|
				 |
guitar 3 (dist.  w echo)	 |  (This leads to chorus guit 1)
				 |
D--------------------------------|--------------------------------|
A--------------------------------|--------------------------------|
F--------------------------------|--------------------------------|
C--------------------------------|----------------------------5-4-|
G--------------------------------|--------------------------------|
D--------------------------------|--------------------------------|
A--------------------------------|--------------------------------|
E0-------------------------------|--------------------------------|

Chorus 1

guitar 1 (lead melody double)

D--------------------------------|--------------------------------|
A--------------------------------|--------------------------------|
F--------------------------------|--------------------------------|
C2-4---22--4---4-4-5---55--------|5--4------------------------5-4-|
G--------------------------5---5-|------5-------------------------|
D--------------------------------|--------------------------------|
A--------------------------------|--------------------------------|
E--------------------------------|--------------------------------|
				 |
guitar 2 (dist)                  |
				 |
D--------------------------------|---------------------------------|
A--------------------------------|---------------------------------|
F--------------------------------|---------------------------------|
C----------------------55-5557777|------------------------57777999-|
G-----------------5555-55-5555555|---------------------------------|
D7---7--7--7-7-7-73333-33-3333333|3---3--3--3-3-3-3---3-xx35555777-|
A5---5--5--5-5-5-5---------------|1---1--1--1-1-1-1---1-xx---------|
E--------------------------------|---------------------------------|

guitar 1 (lead melody double)
[ Tab from: http://www.guitaretab.com/e/elena-siegman/195224.html ]
D--------------------------------|--------------------------------|
A--------------------------------|--------------------------------|
F--------------------------2-2-4-|5--4----------------------------|
C2-4---22--4---4-4-5---55--------|------5-------------------------|
G--------------------------------|--------------------------------|
D--------------------------------|--------------------------------|
A--------------------------------|--------------------------------|
E--------------------------------|--------------------------------|
				 |
guitar 2 (dist)                  |
				 |
D--------------------------------|---------------------------------|
A--------------------------------|---------------------------------|
F--------------------------------|---------------------------------|
C----------------------55-5557777|------------------------57777999-|
G-----------------5555-55-5555555|---------------------------------|
D7---7--7--7-7-7-73333-33-3333333|3---3--3--3-3-3-3---3-xx35555777-|
A5---5--5--5-5-5-5---------------|1---1--1--1-1-1-1---1-xx---------|
E--------------------------------|---------------------------------|

Verse 2

guitar 1 (clean w echo left side)

D8-9-108-8-9-8-9-8-9-108-8-9-8-9-|8-9-108-8-9-8-9-8-9-108-8-9-8-9-|
A--------------------------------|--------------------------------|
F--------------------------------|--------------------------------|
C--------------------------------|--------------------------------|
G--------------------------------|--------------------------------|
D--------------------------------|--------------------------------|
A--------------------------------|--------------------------------|
E--------------------------------|--------------------------------|
				 |
guitar 2 (clean w echo right side|
				 |
D6-------------------------------|6-------------------------------|
A--------4-----------------------|--------4-----------------------|
F----------------7---------------|----------------7---------------|
C--------------------------------|--------------------------------|
G--------------------------------|--------------------------------|
D--------------------------------|--------------------------------|
A--------------------------------|--------------------------------|
E--------------------------------|--------------------------------|
				 |
guitar 3 (dist.  w echo)	 |
				 |
D--------------------------------|--------------------------------|
A--------------------------------|--------------------------------|
F--------------------------------|--------------------------------|
C--------------------------------|--------------------------------|
G--------------------------------|--------------------------------|
D--------------------------------|--------------------------------|
A--------------------------------|--------------------------------|
E0-------------------------------|------------------------------1-|


guitar 1 (clean w echo left side)

D8-9-108-8-9-8-9-8-9-108-8-9-8-9-|8-9-108-8-9-8-9-8-9-108-8-9-8-9-|
A--------------------------------|--------------------------------|
F--------------------------------|--------------------------------|
C--------------------------------|--------------------------------|
G--------------------------------|--------------------------------|
D--------------------------------|--------------------------------|
A--------------------------------|--------------------------------|
E--------------------------------|--------------------------------|
				 |
guitar 2 (clean w echo right side|
				 |
D6-------------------------------|6-------------------------------|
A--------4-----------------------|--------4-----------------------|
F----------------4---------------|----------------7---------------|
C--------------------------------|--------------------------------|
G--------------------------------|--------------------------------|
D--------------------------------|--------------------------------|
A--------------------------------|--------------------------------|
E--------------------------------|--------------------------------|
				 |
guitar 3 (dist.  w echo)	 |
				 |
D--------------------------------|---------------------------------|
A--------------------------------|---------------------------------|
F--------------------------------|--------------------------xx5555-|
C--------------------------------|---------------------------------|
G--------------------------------|--------------------------xx3333-|
D--------------------------------|---------------------------------|
A--------------------------------|---------------------------------|
E0-------------------------------|---------------------------------|


Chorus 2

guitar 1 (lead melody double)

D--------------------------------|--------------------------------|
A--------------------------------|--------------------------------|
F--------------------------------|--------------------------------|
C2-4---22--4---4-4-5---55--------|5--4------------------------5-4-|
G--------------------------5---5-|------5-------------------------|
D--------------------------------|--------------------------------|
A--------------------------------|--------------------------------|
E--------------------------------|--------------------------------|
				 |
guitar 2 (dist)                  |
				 |
D--------------------------------|---------------------------------|
A--------------------------------|---------------------------------|
F--------------------------------|---------------------------------|
C----------------------55-5557777|------------------------57777999-|
G-----------------5555-55-5555555|---------------------------------|
D7---7--7--7-7-7-73333-33-3333333|3---3--3--3-3-3-3---3-xx35555777-|
A5---5--5--5-5-5-5---------------|1---1--1--1-1-1-1---1-xx---------|
E--------------------------------|---------------------------------|

guitar 1 (lead melody double)

D--------------------------------|--------------------------------|
A--------------------------------|--------------------------------|
F--------------------------2-2-4-|5--4----------------------------|
C2-4---22--4---4-4-5---55--------|------5---------------5-5-5-4-4-|
G--------------------------------|--------------------------------|
D--------------------------------|--------------------------------|
A--------------------------------|--------------------------------|
E--------------------------------|--------------------------------|
				 |
guitar 2 (dist)                  |
				 |
D--------------------------------|---------------------------------|
A--------------------------------|---------------------------------|
F--------------------------------|---------------------------------|
C----------------------55-5557777|------------------------57777999-|
G-----------------5555-55-5555555|---------------------------------|
D7---7--7--7-7-7-73333-33-3333333|3---3--3--3-3-3-3---3-xx35555777-|
A5---5--5--5-5-5-5---------------|1---1--1--1-1-1-1---1-xx---------|
E--------------------------------|---------------------------------|

Bridge  3X

guitar 1 (lead melody double)

D--------------------------------|--------------------------------|
A--------------------------------|--------------------------------|
F--------------------------------|--------------------------------|
C2-------------------------------|--------------------------------|
G--------------------------------|--------------------------------|
D--------------------------------|--------------------------------|
A--------------------------------|--------------------------------|
E--------------------------------|--------------------------------|
				 |
guitar 2 (dist)                  |
				 |
D--------------------------------|---------------------------------|
A--------------------------------|---------------------------------|
F--------------------------------|---------------------------------|
C--------------------------------|------------------------7-777999-|
G-----------------555xx5-55xx5-5-|---------------------------------|
D7-77xx7-77xx7-777333xx3-33xx3-3-|3-33xx3-33xx3-xx3-33xx3-5-555777-|
A5-55xx5-55xx5-555---------------|1-11xx1-11xx1-xx1-11xx1----------|
E--------------------------------|---------------------------------|

guitar solo

guitar 1 (lead melody double)

D--------------------------------|--------------------------------|
A--------------------------------|--------------------------------|
F9-----7-------------------------|--------------------------------|
C----------9-7-5-7--/9\5---------|4--/5-----------------------5-4-|
G--------------------------------|------5-------------------------|
D--------------------------------|--------------------------------|
A--------------------------------|--------------------------------|
E--------------------------------|--------------------------------|
				 |
guitar 2 (dist)                  |
				 |
D--------------------------------|--------------------------------|
A------7-----7-------------------|--------------------------------|
F------x-----x-------------------|--------------------------------|
C------x-----x---5--5-57---5-7-5-|----------------4--4--2-----2---|
G7--7-77---7-7-7-5--5-55---5-5-5-|3--3-33---3-3-3-3--3--3-----3-3-|
D7--7-77---7-7-7-3--3-33---3-3-3-|3--3-33---3-3-3-3--3--3-----3-3-|
A5--5-55---5-5-5-----------------|1--1-11---1-1-1-1--1-11---1---1-|
E--------------------------------|--------------------------------|


outro chorus

guitar 1 (lead melody double)

D--------------------------------|--------------------------------|
A--------------------------------|--------------------------------|
F--------------------------------|--------------------------------|
C2-4---22--4---4-4-5---55--------|5--4------------------------5-4-|
G--------------------------5---5-|------5-------------------------|
D--------------------------------|--------------------------------|
A--------------------------------|--------------------------------|
E--------------------------------|--------------------------------|
				 |
guitar 2 (dist)                  |
				 |
D--------------------------------|--------------------------------|
A------7-----7-------------------|--------------------------------|
F------x-----x-------------------|--------------------------------|
C------x-----x---5--5-57---5-7-5-|----------------4--4--2-----2---|
G7--7-77---7-7-7-5--5-55---5-5-5-|3--3-33---3-3-3-3--3--3-----3-3-|
D7--7-77---7-7-7-3--3-33---3-3-3-|3--3-33---3-3-3-3--3--3-----3-3-|
A5--5-55---5-5-5-----------------|1--1-11---1-1-1-1--1-11---1---1-|
E--------------------------------|--------------------------------|


guitar 1 (lead melody double)

D--------------------------------|--------------------------------|
A--------------------------------|--------------------------------|
F--------------------------2-2-4-|5--4----------------------------|
C2-4---22--4---4-4-5---55--------|------5-------------------------|
G--------------------------------|--------------------------------|
D--------------------------------|--------------------------------|
A--------------------------------|--------------------------------|
E--------------------------------|--------------------------------|
				 |
guitar 2 (dist)                  |
				 |
D--------------------------------|--------------------------------|
A------7-----7-------------------|--------------------------------|
F------x-----x-------------------|--------------------------------|
C------x-----x---5--5-57---5-7-5-|----------------4--4--2-----2---|
G7--7-77---7-7-7-5--5-55---5-5-5-|3--3-33---3-3-3-3--3--3-----3-3-|
D7--7-77---7-7-7-3--3-33---3-3-3-|3--3-33---3-3-3-3--3--3-----3-3-|
A5--5-55---5-5-5-----------------|1--1-11---1-1-1-1--1-11---1---1-|
E--------------------------------|--------------------------------|


(lead guit out) play 2 X
guitar 1 (lead melody double)

D--------------------------------|--------------------------------|
A--------------------------------|--------------------------------|
F--------------------------------|--------------------------------|
C--------------------------------|--------------------------------|
G--------------------------------|--------------------------------|
D--------------------------------|--------------------------------|
A--------------------------------|--------------------------------|
E--------------------------------|--------------------------------|
				 |
guitar 2 (dist)                  |				      |
D--------------------------------|--------------------------------|
A------7-----7-------------------|--------------------------------|
F------x-----x-------------------|--------------------------------|
C------x-----x---5--5-57---5-7-5-|----------------4--4--2-----2---|
G7--7-77---7-7-7-5--5-55---5-5-5-|3--3-33---3-3-3-3--3--3-----3-3-|
D7--7-77---7-7-7-3--3-33---3-3-3-|3--3-33---3-3-3-3--3--3-----3-3-|
A5--5-55---5-5-5-----------------|1--1-11---1-1-1-1--1-11---1---1-|
E--------------------------------|--------------------------------|

Outro (make intimidating metal face when playing this part)

D--------------------------------|--------------------------------|
A--------------------------------|--------------------------------|
F--------------------------------|--------------------------------|
C--------------------------------|--------------------------------|
G--------------------------------|--------------------------------|
D--------------------------------|--------------------------------|
A--------------------------------|--------------------------------|
E3-----2-------1-----------1-2-3-|------2-------1-----------112-3-|

D--------------------------------|--------------------------------|
A--------------------------------|--------------------------------|
F--------------------------------|--------------------------------|
C--------------------------------|--------------------------------|
G--------------------------------|--------------------------------|
D--------------------------------|--------------------------------|
A--------------------------------|--------------------------------|
E------2-------1-----------1-2-3-|------2-------1-----------112-3-|

D--------------------------------|--------------------------------|
A--------------------------------|--------------------------------|
F--------------------------------|--------------------------------|
C--------------------------------|--------------------------------|
G--------------------------------|--------------------------------|
D--------------------------------|--------------------------------|
A--4-------3---------------------|--4-------3---------------------|
E----3-2-----2-1-----------1-2-3-|----3-2-----2-1-----------112-3-|


D--------------------------------|--------------------------------|
A--------------------------------|--------------------------------|
F--------------------------------|--------------------------------|
C--------------------------------|--------------------------------|
G--------------------------------|--------------------------------|
D--------------------------------|--------------------------------|
A--------------------------------|--------------------------------|
E------2-------1-----------1-2-3-|------2-------1-----------112-3-|


D--------------------------------|--------------------------------|
A--------------------------------|--------------------------------|
F--------------------------------|--------------------------------|
C--------------------------------|--------------------------------|
G--------------------------------|--------------------------------|
D--------------------------------|--------------------------------|
A--4-------3---------------------|--4-------3---------------------|
E----3-2-----2-1-----------1-2-3-|----3-2-----2-1-----------------|


The One
lyrics

Verse1

All my life Iíve been debating
All the crows they sit there waiting
Wondíring what Iím going to eat, Un-
Till I have it I canít sleep. I

Finílly see you on the floor. Your
Heartís not beating anymore. My
Lust for you just cannot wait. Your
Skin it tastes like chocolate

Staring blankly at the sun
waiting for my time to come. Your
Happy life it makes me sick.
All the screaming sounds like music.

Lucid are my pooling dreams
Someone tell me what they mean. Thereís an
Iron smell of blood in the air, but
I canít find it anywhere.

Chorus 1
Iíve been
Waiting, For
Someone. To
Find me, and
Become
A part of me. Iíve been waitingÖ Iíve been

Waiting, For
You to
Come here and
Kill me and
Set me freeÖ Iíve been waiting forÖ..

Verse2

Blood.. flavor so metallic
Smell.. makes me go fanatic
Texture that I find in you, is a
Thick vis-cous glue My

Senses have become so keen with
All I touch and all I see. Thereís an
Iron smell of blood in the air and
Now I see it everywhere.

Chorus 2

Iíve been
Waiting, For
Someone. To
Find me, and
Become
A part of me. Iíve been waitingÖ Iíve been

Waiting, For
You to
Come here and
Kill me and
Set me freeÖ Iíve been waiting for the (bridge starts) one.

Bridge

Iíve been waiting for the one
Iíve been waiting for someone
Iíve been waiting for you to come here and kill me
Iíve been waiting for

Final Chorus

(same as chorus 2 just repeated)
Related for The One tab
The One chords by Elena Siegman