Elena Siegman - 115 tab

Tuning: DGCFAd
I hope this is correct, it sounds good! Good luck!

     h p h p h p h p h p h p h p h p h p h p h p h      p h
d|------------------------------------------------------------|
A|------------------------------------------------------------|
F|------------------------------------------------------------|
C|-0-7-0-7-0-7-0-7-0-8-0-8-0-8-0-8-0-5-0-5-0-5-0-5-00-8-0-7-00|
G|------------------------------------------------------------|
D|------------------------------------------------------------|
                                                   **       **

   h p h p h p h p h p h p h p h p h p h p h p h p
d|------------------------------------------------------------|
A|------------------------------------------------------------|
F|-------------------------------------------------------5-8-7|
C|-7-0-7-0-7-0-7-0-8-0-8-0-8-0-8-0-5-0-5-0-5-0-5-0-------5-8-7|
G|-------------------------------------------------8-7-5-3-6-5|
D|------------------------------------------------------------|
                                                   * * *
Also, after that part, you can hear something like this.

d|------------------------------------------------------------|
A|------------------------------------------------------------|
F|-7-77-77-77-7/8-8-8-8/10-10---------------------------------|
C|-7-77-77-77-7/8-8-8-8/10-10---------------------------------|
G|-5-55-55-55-5/6-6-6-6/8--8----------------------------------|
D|------------------------------------------------------------|

Thanks again, hope this helps!
Tap to rate this tab
 
# A B C D E F G H I J K L M N O P Q R S T U V W X Y Z