Elena Siegman - Lullaby For A Dead Man chords

Highlighted       Show chord diagrams
Guitar Lead Figure 1 Lead   Play x2 with Rhythm during intro
E--------------------------------------------------------------------------|
B---------6---6-----6---6---8---8-------------6---6---6---6---9---10-------|
G-6---6---------------6---6---8---8---6---6-------------6---6--------------|
D--8---8-----7---7---------------------8---8-----7---7----------10---10----|
A--------------------------------------------------------------------------|
E--------------------------------------------------------------------------|


Guitar Rhythm Figure 2 Rhythm    Play x2 with Lead during intro

Bb5      F5        C#5        Eb5         Bb5  F5         Db5      Ab5     A

E----------------------------------------------------------------------------|
B----------------------------------------------------------------------------|
G----------------------------------------------------------------------------|
D-------- 10101010------------8-8-8-8----------------------6-6-6-6-----------|
A-8-8-8-8--8-8-8-8--11111111--6-6-6-6-----8-8-8-8-3-3-3-3--4-4-4-4--6-6-6-6-7|
E-6-6-6-6-----------9-9-9-9---------------6-6-6-6-1-1-1-1-----------4-4-4-4-5|

Verse 1
Bb5
Life is still scaring, in my beginning
Eb5
everything I hope for has been strangely set aside
Bb5
breathing for living, my mind is forgiving
Eb5                                      F5
and destiny is proving to be absent from my mind

Chorus 1
F#5               Ab5        A
I know where a feeling
Bb5   F     Db5       Eb5
I know when you're sleeping
Bb5   F      Db5       Eb5
I know the things you're dreaming
        F#5                     Ab5   Bb5
and I know you will never give up and die


Play Guitar Figure 1 and 2 x1


Verse 2
Bb5
Conscious fulfilling, darkness revealing
Eb5 
Oh faltering securities are shining on the sun
Bb5
Eyes are deceiving, your mind will stop breathing and
Eb5                                      F5
All you are made of will now wryly become mine


Chorus 2
F#5               Ab5        A
You know when you're feeling
Bb5   F     Db5       Eb5
I know when you're sleeping
Bb5   F      Db5       Eb5
I know the things you're dreaming
Bb5   F      Db5       Eb5
I love it when you're weeping
Bb5   F      Db5       Eb5
Even death can't stop this feeling
F#5                     Ab5   Bb5
And I know you won't give up and die

Interlude
F#5     Bb5
Father, why have you forsaken me
F#5           Bb5
my life is gone
F#5     Bb5
father, know how long it's taken me
F#5    Ab5  A
I live again

Chorus 3
N.C.
I know when you're sleeping
N.C.
I know the things you're dreaming
Bb5   F     Db5       Eb5
I know when you're sleeping
Bb5   F     Db5       Eb5
I know the things you're dreaming
Bb5   F     Db5       Eb5
I love when you're weeping
Bb5   F     Db5       Eb5
Even death can't stop this feeling

Outro Chorus
F#5               Ab5        A
I know when you're sleeping
Bb5   F     Db5       Eb5
I know the things you're dreaming
Bb5   F     Db5       Eb5
I love when you're weeping
Bb5   F     Db5       Eb5
Even death can't stop this feeling
F#5                     Ab5   Bb5
And I know you will never give up
F#5                     Ab5   Bb5
No, you will never give up...
F#5                     Ab5   Bb5
You will never give up... and die
Tap to rate this tab
 
# A B C D E F G H I J K L M N O P Q R S T U V W X Y Z