Elena Siegman - 115 tab

-------------------------------------------------------------------------------
			     115 (KIND DER TOTEN) - Elena Siegman
-------------------------------------------------------------------------------


Tuning: DROP C
115 OF THE CALL OF DUTY: BLACK OPS ZOMBIES' MAP KINO DER TOTEN HIDDEN SONG
TIMING IS BAD OFF BUT I GAVE YOU THE BASIC NOTES AND TUNING 

d|----------------------------------------------------------|
a|----------------------------------------------------------|
f|----------------------------------------------------------|  
c|----7--7--7--7--8--8--8--8--5--5--5--5-------8------7--7--|
g|---5--5--5--5--5--5--5--5--5--5--5--5---5--5---5--5--5----|  
c|----------------------------------------------------------|
						 (PM)
d|----------------------------------------------|
a|----------------------------------------------| 
f|----------------------------------------------| 
c|----------------------------------------------| 
g|------------3---6---5---0--0------------------|
c|--4-3-2-0---5---8---7-------------------------|

d|-----------------------------------------------------|
a|-----------------------------------------------------|  
f|-----------------------------------------------------|  
c|-----------------------------------------------------| 
g|-0--0--0--0--0--1--0--1--0--1------------------------|
c|--------------------------------0--5--0--5--0--5-----|

d|------------------------------------------------|
a|------------------------------------------------| 
f|------------------------------------------------| 
c|------------------------------------------------| 
g|------------3---6---5---0--0--------------------|
c|--4-3-2-0---5---8---7---------------------------|

d|-----------------------------------------------------|
a|-----------------------------------------------------|  
f|-----------------------------------------------------|  
c|-----------------------------------------------------| 
g|-0--0--0--0--0--1--0--1--0--1------------------------|
c|--------------------------------0--5--0--5--0--5-----|

d|--------------------------------------------------------------------|
a|--------------------------------------------------------------------| 
f|--------------------------------------------------------------------| 
c|--------------------------------------------------------------------| 
g|------------3---6--5--5--5----5--1--1--1----1--1//3--3----3--3--3--0|
c|--4-3-2-0---5---8--7--7--7----7--1--1--1----1--1//3--3----3--3--3--0|

d|----------------------------------------------------|
a|----------------------------------------------------| 
f|----------------------------------------------------| 
c|----------------------------------------------------| 
g|-0--0--0--0---4--4--4--4---4//7--7--7---7--7--0--0--|
c|-0--0--0--0---4--4--4--4---4//7--7--7---7--7--0--0--|

d|--------------------------------------------------|
a|--------------------------------------------------| 
f|--------------------------------------------------| 
c|--------------------------------------------------| 
g|-0--0--3--3----3--3--3//6----6--6--6--6-----------|
c|-0--0--5--5----5--5--5//8----8--8--8--8-----------|

d|----------------------------------------------------------|
a|----------------------------------------------------------|
f|----------------------------------------------------------|   (x3)
c|----7--7--7--7--8--8--8--8--5--5--5--5-------8------7--7--| 
g|---5--5--5--5--5--5--5--5--5--5--5--5---5--5---5--5--5----| <-- PALM MUTE
c|----------------------------------------------------------|  

d|------------------------------------------------|
a|------------------------------------------------| 
f|------------------------------------------------| 
c|------------------------------------------------| 
g|------------3---6---5---0--0--------------------|
c|--4-3-2-0---5---8---7---------------------------|

d|-----------------------------------------------------|
a|-----------------------------------------------------|  
f|-----------------------------------------------------|  
c|-----------------------------------------------------| 
g|-0--0--0--0--0--1--0--1--0--1------------------------|
c|--------------------------------0--5--0--5--0--5-----|

d|------------------------------------------------|
a|------------------------------------------------| 
f|------------------------------------------------| 
c|------------------------------------------------| 
g|------------3---6---5---0--0--------------------|
c|--4-3-2-0---5---8---7---------------------------|

d|-----------------------------------------------------|
a|-----------------------------------------------------|  
f|-----------------------------------------------------|  
c|-----------------------------------------------------| 
g|-0--0--0--0--0--1--0--1--0--1------------------------|
c|--------------------------------0--5--0--5--0--5-----|

d|----------------------------------------------------------|
a|----------------------------------------------------------| 
f|----------------------------------------------------------| 
c|----------------------------------------------------------| 
g|------------3---6---5--1--1--1----1--1//3--3----3--3--3--0|
c|--4-3-2-0---5---8---7--1--1--1----1--1//3--3----3--3--3--0|

d|-------------------------------------------------------|
a|-------------------------------------------------------| 
f|-------------------------------------------------------| 
c|-------------------------------------------------------| 
g|-0--0--0--0----4--4--4--4----4//7--7--7----7--7--0--0--|
c|-0--0--0--0----4--4--4--4----4//7--7--7----7--7--0--0--|

d|-------------------------------------------------|
a|-------------------------------------------------| 
f|-------------------------------------------------| 
c|-------------------------------------------------| 
g|-0--0--1--1---1--1--1//3----3--3--3--3-----------|
c|-0--0--1--1---1--1--1//3----3--3--3--3-----------|

d|---------------------------------------------|
a|---------------------------------------------| 
f|---------------------------------------------| 
c|---------------------------------------------| 
g|-0--0--0--0----0--3--3--3----3--3//6--6------|
c|-0--0--0--0----0--5--5--5----5--5//8--8------|

d|----------------------------------------------------------|
a|----------------------------------------------------------| 
f|----------------------------------------------------------| 
c|----------------------------------------------------------| 
g|--6--6--6-------------6--6--6------6--6--6--0--0--0-------|
c|--8--8--8-------------8--8--8------8--8--8--0--0--0-------|
			(..PM..)     (......PM......)

d|-------------------------------------------------------------|
a|-------------------------------------------------------------| 
f|-------------------------------------------------------------| 
c|----------------3--3--3-----3-----3--3--3--3--3--3--//5--5---| 
g|----3--3--3-----1--1--1-----1-----1--1--1--1--1--1--//3--3---|
c|----3--3--3--------------------------------------------------|
      (..PM..)    (..............PM..............)

d|-----------------------------------------------------|
a|-----------------------------------------------------|  
f|-----------------------------------------------------|  
c|-----------------------------------------------------| 
g|-0--0--0--0--0--1--0--1--0--1------------------------|
c|--------------------------------0--5--0--5--0--5-----|

d|------------------------------------------------|
a|------------------------------------------------| 
f|------------------------------------------------| 
c|------------------------------------------------| 
g|------------3---6---5---0--0--------------------|
c|--4-3-2-0---5---8---7---------------------------|
d|-----------------------------------------------------|
a|-----------------------------------------------------|  
f|-----------------------------------------------------|  
c|-----------------------------------------------------| 
g|-0--0--0--0--0--1--0--1--0--1------------------------|
c|--------------------------------0--5--0--5--0--5-----|

d|------------------------------------------------|
a|------------------------------------------------| 
f|------------------------------------------------| 
c|------------------------------------------------| 
g|------------3---6---5---0--0--------------------|
c|--4-3-2-0---5---8---7---------------------------|

d|-----------------------------------------------------|
a|-----------------------------------------------------|  
f|-----------------------------------------------------|  
c|-----------------------------------------------------| 
g|-0--0--0--0--0--1--0--1--0--1------------------------|
c|--------------------------------0--5--0--5--0--5-----|

d|------------------------------------------------|
a|------------------------------------------------| 
f|------------------------------------------------| 
c|------------------------------------------------| 
g|------------3---6---5---------------------------|
c|--4-3-2-0---5---8---7---------------------------|

d|----------------------------------------------------------|
a|----------------------------------------------------------|
f|----------------------------------------------------------|     (x3)
c|----7--7--7--7--8--8--8--8--5--5--5--5-------8------7--7--| 
g|---5--5--5--5--5--5--5--5--5--5--5--5---5--5---5--5--5----| <-- PALM MUTE 
c|----------------------------------------------------------|

d|-----------------------------------------------------|
a|-----------------------------------------------------|  
f|-----------------------------------------------------|  
c|-----------------------------------------------------| 
g|-0--0--0--0--0--1--0--1--0--1------------------------|
c|--------------------------------0--5--0--5--0--5-----|

d|------------------------------------------------|
a|------------------------------------------------| 
f|------------------------------------------------| 
c|------------------------------------------------| 
g|------------3---6---5---------------------------|
c|--4-3-2-0---5---8---7---------------------------|

d|-----------------------------------------------------|
a|-----------------------------------------------------|  
f|-----------------------------------------------------|  
c|-----------------------------------------------------| 
g|-0--0--0--0--0--1--0--1--0--1------------------------|
c|--------------------------------0--5--0--5--0--5-----|

d|----------------------------------------------------------|
a|----------------------------------------------------------| 
f|----------------------------------------------------------| 
c|----------------------------------------------------------| 
g|------------3---6---5--1--1--1----1--1//3--3----3--3--3--0|
c|--4-3-2-0---5---8---7--1--1--1----1--1//3--3----3--3--3--0|

d|-------------------------------------------------------|
a|-------------------------------------------------------| 
f|-------------------------------------------------------| 
c|-------------------------------------------------------| 
g|-0--0--0--0----4--4--4--4----4//7--7--7----7--7--0--0--|
c|-0--0--0--0----4--4--4--4----4//7--7--7----7--7--0--0--|

d|-------------------------------------------------|
a|-------------------------------------------------| 
f|-------------------------------------------------| 
c|-------------------------------------------------| 
g|-0--0--1--1---1--1--1//3----3--3--3--3-----------|
c|-0--0--1--1---1--1--1//3----3--3--3--3-----------|

d|---------------------------------------------------|
a|---------------------------------------------------| 
f|---------------------------------------------------| 
c|---------------------------------------------------| 
g|-0--0--0--0----0--3--3--3----3//6--6--6----6--6--6-|
c|-0--0--0--0----0--5--5--5----5//8--8--8----8--8--8-

d|---------------------------------------------------------------------|
a|---------------------------------------------------------------------| 
f|---------------------------------------------------------------------| 
c|------------------------------3--3--3-----3--3--3--3--3--3--//5--5---| 
g|---6--0--0--0-----3--3--3-----1--1--1-----1--1--1--1--1--1--//3--3---|
c|---8--0--0--0-----3--3--3--------------------------------------------|
     (....PM..)   (..PM..)     (.............PM...........)

d|-------------------------------------------------------------------------|
a|-------------------------------------------------------------------------| 
f|-------------------------------------------------------------------------| 
c|----------------------------3--3--3-----3-----3--3--3--3--3--3--//5--5---| 
g|----0--0--0-----3--3--3-----1--1--1-----1-----1--1--1--1--1--1--//3--3---|
c|----0--0--0-----3--3--3--------------------------------------------------|
      (..PM..)   (..PM..)    (..............PM...............)

d|-----------------------------------------------------|
a|-----------------------------------------------------|  
f|-----------------------------------------------------|  
c|-----------------------------------------------------| 
g|-0--0--0--0--0--1--0--1--0--1------------------------|
c|--------------------------------0--5--0--5--0--5-----|

d|------------------------------------------------|
a|------------------------------------------------| 
f|------------------------------------------------| 
c|------------------------------------------------| 
g|------------3---6---5---------------------------|
c|--4-3-2-0---5---8---7---------------------------|

d|-----------------------------------------------------|
a|-----------------------------------------------------|  
f|-----------------------------------------------------|  
c|-----------------------------------------------------| 
g|-0--0--0--0--0--1--0--1--0--1------------------------|
c|--------------------------------0--5--0--5--0--5-----|

d|---------------------------------------------------------|
a|---------------------------------------------------------| 
f|---------------------------------------------------------| 
c|---------------3--3--3--3-----3--3--3--3-----3--3--3--3--| 
g|----3--6--5----1--1--1--1-----1--1--1--1-----1--1--1--1--|
c|----5--8--7----------------------------------------------|
                 (....................PM................)

d|------------------------------------------------|
a|------------------------------------------------| 
f|------------------------------------------------| 
c|------------------------------------------------| 
g|--0--0--0--0-----0--0--0--0-----0--0--0--0------|
c|--0--0--0--0-----0--0--0--0-----0--0--0--0------|
   (....................PM..................)

d|-------------------------------------------------|
a|-------------------------------------------------| 
f|-------------------------------------------------| 
c|-------3--3--3--3-----3--3--3--3-----3--3--3--3--| 
g|-------1--1--1--1-----1--1--1--1-----1--1--1--1--|
c|-------------------------------------------------|
        (....................PM..................)

d|---------------------------------------------|
a|---------------------------------------------| 
f|---------------------------------------------| 
c|--5--5--5--5-----6--6--6--6------------------| 
g|--3--3--3--3-----4--4--4--4--------0---------|
c|-----------------------------------0---------|
   
d|----------------------------------------------------|
a|----------------------------------------------------| 
f|----------------------------------------------------| 
c|----------------------------------------------------| 
g|----------------------------------------------------|
c|-0--0--0-----0--0--0-----0--0--0----0--4--3--2--0---|
   (............................PM.................)

d|-------------------------------------------------------------------------|
a|-------------------------------------------------------------------------| 
f|-------------------------------------------------------------------------| 
c|----------------------------3--3--3-----3-----3--3--3--3--3--3--//5--5---| 
g|----0--0--0-----3--3--3-----1--1--1-----1-----1--1--1--1--1--1--//3--3---|
c|----0--0--0-----3--3--3--------------------------------------------------|
      (..PM..)   (..PM..)    (..............PM...............)

d|-------------------------------------------------------------------------|
a|-------------------------------------------------------------------------| 
f|-------------------------------------------------------------------------| 
c|----------------------------3--3--3-----3-----3--3--3--3--3--3--//5--5---| 
g|----0--0--0-----3--3--3-----1--1--1-----1-----1--1--1--1--1--1--//3--3---|
c|----0--0--0-----3--3--3--------------------------------------------------|
      (..PM..)   (..PM..)    (..............PM...............)

d|----------------------------------------------------------|
a|----------------------------------------------------------| 
f|----------------------------------------------------------| 
c|-------------------------------3-3-3-3-3-3-3--5-5-5-5-5-5-| 
g|-0-0-0-0-0-0-0--3-3-3-3-3-3-3--1-1-1-1-1-1-1--5-5-5-5-5-5-|
c|-0-0-0-0-0-0-0--3-3-3-3-3-3-3-----------------------------|

d|----------------------------------------------------------|
a|----------------------------------------------------------| 
f|----------------------------------------------------------| 
c|-------------------------------3-3-3-3-3-3-3--5-5-5-5-5-5-| 
g|-0-0-0-0-0-0-0--3-3-3-3-3-3-3--1-1-1-1-1-1-1--5-5-5-5-5-5-|
c|-0-0-0-0-0-0-0--3-3-3-3-3-3-3-----------------------------|

d|----------------------------------------------------------|
a|----------------------------------------------------------| 
f|----------------------------------------------------------| 
c|-------------------------------3-3-3-3-3-3-3--5-5-5-5-5-5-| 
g|-0-0-0-0-0-0-0--3-3-3-3-3-3-3--1-1-1-1-1-1-1--5-5-5-5-5-5-|
c|-0-0-0-0-0-0-0--3-3-3-3-3-3-3-----------------------------|

d|-----------------------------------------------------|
a|-----------------------------------------------------|  
f|-----------------------------------------------------|  
c|-----------------------------------------------------| 
g|-0--0--0--0--0--1--0--1--0--1------------------------|
c|--------------------------------0--5--0--5--0--5-----|

d|------------------------------------------------|
a|------------------------------------------------| 
f|------------------------------------------------| 
c|------------------------------------------------| 
g|------------3---6---5---------------------------|
c|--4-3-2-0---5---8---7---------------------------|
d|-----------------------------------------------------|
a|-----------------------------------------------------|  
f|-----------------------------------------------------|  
c|-----------------------------------------------------| 
g|-0--0--0--0--0--1--0--1--0--1------------------------|
c|--------------------------------0--5--0--5--0--5-----|

d|------------------------------------------------|
a|------------------------------------------------| 
f|------------------------------------------------| 
c|------------------------------------------------| 
g|------------3---6---5---------------------------|
c|--4-3-2-0---5---8---7---------------------------|


THE END

IT TOOK ME HOURS OR RESEARCH AND PRACTICE TO POST THIS BAD ASS TAB FOR A BAD ASS 
SONG PLEASE RATE!!!!!!!!!!

***********************************
| /   slide up
| \   slide down
| h   hammer-on
| p   pull-off
| ~   vibrato
| +   harmonic
| x   Mute note
| b   Bend
| pb  Pre-bend
| br  Bend release
| pbr Pre-bend release
| brb Bend release bend
| PM  Palm Mute

************************************
Tap to rate this tab
 
# A B C D E F G H I J K L M N O P Q R S T U V W X Y Z