Song name
# A B C D E F G H I J K L M N O P Q R S T U V W X Y Z

Elena Siegman - 115 tab

its not completely right but if you`re a starting player it sounds OK

d|------------------------------------------------------------|
A|------------------------------------------------------------|
F|------------------------------------------------------------|
C|-0-7-0-7-0-7-0-7-0-8-0-8-0-8-0-8-0-5-0-5-0-5-0-5-00-8-0-7-00|
G|------------------------------------------------------------|
D|------------------------------------------------------------|


d|------------------------------------------------------------|
A|------------------------------------------------------------|
F|------------------------------------------------------------|
C|-7-0-7-0-7-0-7-0-8-0-8-0-8-0-8-0-5-0-5-0-5-0-5-0------------|
G|-------------------------------------------------8-7-5-3-6-5|
D|------------------------------------------------------------|


d|------------------------------------------------------------|
A|------------------------------------------------------------|
F|------------------------------------------------------------|
C|------------------------------------------------------------|
G|5-5-5-6-6-6-6-3-3-3-3-8-7-5-3-6-5---------------------------|
D|------------------------------------------------------------|
repeat twice

d|------------------------------------------------------------|
A|------------------------------------------------------------|
F|------------------------------------------------------------|
C|------------------------------------------------------------|
G|5-5-666-888-5-5-999-666-5-5-666-888-5-5-3-6-----------------|
D|------------------------------------------------------------|


it`s my first tab so be nice

LARS KNOOPS --> DeagleK1llz
Tap to rate this tab
 
# A B C D E F G H I J K L M N O P Q R S T U V W X Y Z