Song name
# A B C D E F G H I J K L M N O P Q R S T U V W X Y Z

Elena Siegman - Beauty Of Annihilation tab

-------------------------------------------------------------------------|
-------------------------------------------------------------------------|
-------------------------------------------------------------------------|
------4--5--4--2-----4-4--5--4-----4-4--5--4----------------------4-4--5-|
2--5--------------5-------------5-------------2--4--5-----4-4--5---------|
-------------------------------------------------------3-----------------|


------------------------------------------------------------------------|
------------------------------------------------------------------------|
------------------------------------------------------------------------|
4-4-4--5--4--4(5)-4--2--4-----------------------------------------------|
------------------------------------------------------------------------|
------------------------------------------------------------------------|
Tap to rate this tab
# A B C D E F G H I J K L M N O P Q R S T U V W X Y Z