Song name
# A B C D E F G H I J K L M N O P Q R S T U V W X Y Z

Elena Siegman - Beauty Of Annihilation tab

Elena Siegman-beauty of annihilation

INTRO
|-------------------------------------------------------------------------|
|-------------------------------------------------------------------------|
|-------------------------------------------------------------------------|2x
|-----4-----4-----4-----4-----3-----3-----3-----3-------------------------|
|-2-5---2-5---2-5---2-5---2-4---2-4---2-4---2-4---------------------------|
|-------------------------------------------------------------------------|


|-------------------------------------------------------------------------|
|-------------------------------------------------------------------------|
|-------------------------------------------------------------------------|2x
|-------------------------------------------------------------------------|
|4-44-4-4-4-3----4-44-4-4-4-3-3-3-3-3-3-----------------------------------|
|2-22-2-2-2-1----2-22-2-2-2-1-1-1-1-1-1-----------------------------------|


|-------------------------------------------------------------------------|
|-------------------------------------------------------------------------|
|-------------------------------------------------------------------------|
|-------------------------------------------------------------------------|
|444-444-4-4----333-333-3-3----444-444-4-4----3-3-3-3-3-3-----------------|
|222-222-2-2----111-111-1-1----222-222-2-2----1-1-1-1-1-1-----------------|


|-------------------------------------------------------------------------|
|-------------------------------------------------------------------------|
|-------------------------------------------------------------------------|
|-------------------------------------------------------------------------|
|444-444-4-4----333-333-3-3----666-666-6-6----2~~~~~~~~~~~----------------|
|222-222-2-2----111-111-1-1----444-444-4-4----0~~~~~~~~~~~----------------|


|-------------------|
|-------------------|
|-------------------|
|-------------------|
|22-44-55-7---------|
|-------------------|


|-------------------------------------------------------------------------|
|-------------------------------------------------------------------------|
|-------------------------------------------------------------------------|
|------4--5--4--2-----4-4--5--4-----4-4--5--4----------------------4-4--5-|
|2--5--------------5-------------5-------------2--4--5-----4-4--5---------|
|-------------------------------------------------------3-----------------|


|-------------------------------------------------------------------------|
|-------------------------------------------------------------------------|
|-------------------------------------------------------------------------|
|4-4-4--5--4--4(5)-4--2--4--2--0------------------------------------------|
|-------------------------------------------------------------------------|
|-------------------------------------------------------------------------|


Try to create you own end and send it to zo_tim@hotmail.com
Tap to rate this tab
# A B C D E F G H I J K L M N O P Q R S T U V W X Y Z