Song name
# A B C D E F G H I J K L M N O P Q R S T U V W X Y Z

Elena Siegman - 115 tab

h=hammer on
p=pull off
b=bend
s=slide
                  Sounds like it
            
                   Intro 1A

|----------------------------------------------------------------|
|----------------------------------------------------------------|
|----------------------------------------------------------------|
|-7-0-7-0-7-0-7-0-8-0-8-0-8-0-8-0-5-0-5-0-5-0-5-0-5-0-0-8-0-7-0-0|
|----------------------------------------------------------------|
|----------------------------------------------------------------|

|-------------------------------------------------|
|-------------------------------------------------|
|-------------------------------------------------|
|-7-0-7-0-7-0-7-0-8-0-8-0-8-0-8-0-5-0-5-0-5-0-5-0-|
|-------------------------------------------------|
|-------------------------------------------------|

          stop here
          when repeated      Intro 1B
           v                Repeat once
|------------------------------------------------------------|
|------------------------------------------------------------|
|------------------------------------------------------------|
|2-3-0-4-7-0-------------------------------------------------|
|2-3-0-3-6-0-------------------------------------------------|
|2-3-0-5-8-0-0-7-0-7-0-7-0-7-8-0-8-0-8-0-8-0-5-0-5-0-5-0-5-0-|
     

Tap to rate this tab
# A B C D E F G H I J K L M N O P Q R S T U V W X Y Z