Song name
# A B C D E F G H I J K L M N O P Q R S T U V W X Y Z

Elena Siegman - Lullaby For A Dead Man tab

Elena siegman-Lullaby for a dead man

intro guitar 1           (2x)
|-----------------------------------------------------------------------------|
|----------5---5-----5---5-----7---7---------------5---5-----5---5-----8---9--|
|5---5-----------------5---5-----7---7---5---5-----------------5---5-----9---9|
|--7---7-----6---6-------------------------7---7-----6---6--------------------|
|-----------------------------------------------------------------------------|
|-----------------------------------------------------------------------------|

intro guitar 2           (2x)
|-----------------------------------------------------------------------------|
|-----------------------------------------------------------------------------|
|-----------------------------------------------------------------------------|
|-----------------------------------------------------------------------------|
|7777-2222-10101010-12121212-7777-2222-10101010-5555--------------------------|
|5555-0000-8 8 8 8--10101010-5555-0000-8 8 8 8--3333--------------------------|
_______________________________________________________________________________

guitar 2
|-----------------------------------------------------------------------------|
|-----------------------------------------------------------------------------|
|-----------------------------------------------------------------------------|
|-----------------------------------------------------------------------------|
|7777777777777777--2222222222222222--7777777777777777--2222222222222222-------|
|5555555555555555--0000000000000000--5555555555555555--0000000000000000-------|
_______________________________________________________________________________

guitar 1
|-----------------------------------------------------------------------------|
|-------5-5-----------------------------------5--3-3-----------------3--------|
|5-5--2-----5--5--4-2-2-5-4-5-4-2-5-5-4-2-2-2---------5-4-5--5-2-5-2--5-4-5-4-|
|-----------------------------------------------------------------------------|
|-----------------------------------------------------------------------------|
|-----------------------------------------------------------------------------|


|-----------------------------------------------------------------------------|
|----------5---5-----5---5-----7---7---------------5---5-----5---5-----8---9--|
|5---5-----------------5---5-----7---7---5---5-----------------5---5-----9---9|
|--7---7-----6---6-------------------------7---7-----6---6--------------------|
|-----------------------------------------------------------------------------|
|-----------------------------------------------------------------------------|

guitar 2             4x
|-----------------------------------------------------------------------------|
|-----------------------------------------------------------------------------|
|-----------------------------------------------------------------------------|
|-----------------------------------------------------------------------------|
|7777-2222-10101010-12121212-7777-2222-10101010-5555--------------------------|
|5555-0000-8 8 8 8--10101010-5555-0000-8 8 8 8--3333--------------------------|
_______________________________________________________________________________
guitar 2
|-----------------------------------------------------------------------------|
|-----------------------------------------------------------------------------|
|-----------------------------------------------------------------------------|
|-----------------------------------------------------------------------------|
|7777777777777777--2222222222222222--7777777777777777--2222222222222222-------|
|5555555555555555--0000000000000000--5555555555555555--0000000000000000-------|

_______________________________________________________________________________

guitar 1            2x
|-----------------------------------------------------------------------------|
|-------5-5-----------------------------------5--3-3-----------------3--------|
|5-5--2-----5--5--4-2-2-5-4-5-4-2-5-5-4-2-2-2---------5-4-5--5-2-5-2--5-4-5-4-|
|-----------------------------------------------------------------------------|
|-----------------------------------------------------------------------------|
|-----------------------------------------------------------------------------|

guitar 2           4x  
|-----------------------------------------------------------------------------|
|-----------------------------------------------------------------------------|
|-----------------------------------------------------------------------------|
|-----------------------------------------------------------------------------|
|7777-2222-10101010-12121212-7777-2222-10101010-5555--------------------------|
|5555-0000-8 8 8 8--10101010-5555-0000-8 8 8 8--3333--------------------------|

_______________________________________________________________________________

guistar 1 solo
|-----------------------------------------------------------------------------|
|5-3-----3----5-3------------------5-3-----3----5-3-----------10-8-10~~~~~~~~~|
|----5-5---55-----5-2--2-2-5-4---5-----5-5---55-----5-2--2-2------------------|
|-----------------------------------------------------------------------------|
|-----------------------------------------------------------------------------|
|-----------------------------------------------------------------------------|

_______________________________________________________________________________
techno part
_______________________________________________________________________________
guitar 1
|-----------------------------------------------------------------------------|
|-------5-5-----------------------------------5--3-3-----------------3--------|
|5-5--2-----5--5--4-2-2-5-4-5-4-2-5-5-4-2-2-2---------5-4-5--5-2-5-2--5-4-5-4-|
|-----------------------------------------------------------------------------|
|-----------------------------------------------------------------------------|
|-----------------------------------------------------------------------------|


|-----------------------------------------------------------------------------|
|----------5---5-----5---5-----7---7---------------5---5-----5---5-----8---9--|
|5---5-----------------5---5-----7---7---5---5-----------------5---5-----9---9|
|--7---7-----6---6-------------------------7---7-----6---6--------------------|
|-----------------------------------------------------------------------------|
|-----------------------------------------------------------------------------|
==
guitar 2           4x  
|-----------------------------------------------------------------------------|
|-----------------------------------------------------------------------------|
|-----------------------------------------------------------------------------|
|-----------------------------------------------------------------------------|
|7777-2222-10101010-12121212-7777-2222-10101010-5555--------------------------|
|5555-0000-8 8 8 8--10101010-5555-0000-8 8 8 8--3333--------------------------|
Tap to rate this tab
# A B C D E F G H I J K L M N O P Q R S T U V W X Y Z