Song name
# A B C D E F G H I J K L M N O P Q R S T U V W X Y Z

Elena Siegman - Lullaby For A Dead Man tab

Hi Guys its wonderwaffeguitar(roxasriku) here . I have been noticing that
most of the epic black ops zombie songs are tabbed for a 8-string guitar 
and a lot of the viewers are having a hard time transposing the song,so,i am
starting to post them fully transposed for a 6-string.

NOTE: on the chorus i had to divide a part of it up into two separate
parts.if you want any other song transposed tell me
Keep Rockin'-wonderwaffeguitar


Lullaby for a Dead Man
featured in Call of Duty: World at War's Nazi Zombie mode.
(Nacht der Untoten Death Song)
(Verruckt Easter Egg Song)


Intro

  p.m.(rhythm only)------------------------------------------------

Eb--------------------------------|---------------------------------|
Bb--------7---7---7---7---9---9---|--------7---7---7---7---10--11---|
Gb7---7-------------7---7---9-----|7---7-------------7---7----------|
Db--9---9---8---8---------------9-|--9---9---8---8-----------11--11-|
Ab--------9-9-9-9---------7-7-7-7-|----------------5-5-5-5----------|
Eb7-7-7-7---------10101010--------|7-7-7-7-2-2-2-2---------5-5-5-6--|

verse1

  p.m.-------------------------------------------         ---------

Eb--------------------------------|--------------------------------|
Bb--------------------------------|--------------------------------|
Gb--------------------------------|--------------------------------|
Db--------------------------------|--------------------------------|
Ab--------------------------------|7-7-7-7-7-7-7-7-7-7-7-7-7-7-7-7-|
Eb7-7-7-7-7-7-7-7-7-7-7-7-7-7-7-7-|7-7-7-7-7-7-7-7-7-7-7-7-7-7-7-7-|

  p.m.-------------------------------------------

Eb--------------------------------|--------------------------------|
Bb--------------------------------|--------------------------------|
Gb--------------------------------|--------------------------------|
Db--------------------------------|--------------------------------|
Ab--------------------------------|7-7-7-7-7-7-7-7-9-9-9-9-9-9-9-9-|
Eb7-7-7-7-7-7-7-7-7-7-7-7-7-7-7-7-|7-7-7-7-7-7-7-7-9-9-9-9-9-9-9-9-|


  p.m.(rhythm only)---------------

Eb--------------------------------|
Bb--------------------------------|
Gb----4-4-------------6-6---------|
Db------------4---------------7---|
Ab--------------------------------|
Eb3-3-3-3-3-3-3-3-6-6-6-6-6-6-6-7-|



chorus1

Rhythm Guitar
  p.m.-------------------------------------------------------------

Eb--------------------------------|--------------------------------|
Bb--------------------------------|--------------------------------|
Gb--------------------------------|--------------------------------|
Db--------------------------------|--------------------------------|
Ab--------9-9-9-9---------7-7-7-7-|--------9-9-9-9---------7-7-7-7-|
Eb7-7-7-7---------10101010--------|7-7-7-7---------10101010--------|
                                  |
                                  |
Lead Guitar                       |
Eb--------------------------------|--------------------------------|
Bb--------------------------------|--------------------------------|
Gb--------------------------------|--------------------------------|
Db--------------------------------|----------------42--------------|
Ab----5---4-2-1---5-------2-------|----5---4-21--4---------4---124-|
Eb--------------------------------|--------------------------------|

  p.m.------------

Eb----------------|
Bb----------------|
Gb----------------|
Db--------2-------|
Ab4-454-2---5-4-2-|
Eb3-3-3/\-2-2---7-|


  p.m.(rhythm only)------------------------------------------------

Eb--------------------------------|---------------------------------|
Bb--------7---7---7---7---9---9---|--------7---7---7---7---10--11---|
Gb7---7-------------7---7---9-----|7---7-------------7---7----------|
Db--9---9---8---8---------------9-|--9---9---8---8-----------11--11-|
Ab--------9-9-9-9---------7-7-7-7-|----------------5-5-5-5----------|
Eb7-7-7-7---------10101010--------|7-7-7-7-2-2-2-2---------5-5-5-6--|

verse2 (identical to verse 1)


chorus2

Rhythm Guitar
  p.m.-------------------------------------------------------------

Eb--------------------------------|--------------------------------|
Bb--------------------------------|--------------------------------|
Gb--------------------------------|--------------------------------|
Db--------------------------------|--------------------------------|
Ab--------9-9-9-9---------7-7-7-7-|--------9-9-9-9---------7-7-7-7-|
Eb7-7-7-7---------10101010--------|7-7-7-7---------10101010--------|
                                  |
                                  |
Lead Guitar                       |
Eb--------------------------------|--------------------------------|
Bb--------------------------------|--------------------------------|
Gb--------------------------------|--------------------------------|
Db--------------------------------|----------------42--------------|
Ab----5---4-2-1---5-------2-------|----5---4-21--4---------4-------|
Eb--------------------------------|--------------------------------|

Rhythm Guitar
  p.m.-------------------------------------------------------------

Eb--------------------------------|--------------------------------|
Bb--------------------------------|--------------------------------|
Gb--------------------------------|--------------------------------|
Db--------------------------------|--------------------------------|
Ab--------9-9-9-9---------7-7-7-7-|--------9-9-9-9---------7-7-7-7-|
Eb7-7-7-7---------10101010--------|7-7-7-7---------10101010--------|
                                  |
                                  |
Lead Guitar                       |
Eb--------------------------------|--------------------------------|
Bb--------------------------------|--------------------------------|
Gb--------------------------------|--------------------------------|
Db--------------------------------|----------------42--------------|
Ab----5---4-2-1---5-------2-------|----5---4-21--4---------4---124-|
Eb--------------------------------|--------------------------------|
  p.m.------------

Eb----------------|
Bb----------------|
Gb----------------|
Db--------2-------|
Ab4-454-2---5-4-5-|
Eb3-3-3/\-2-2---3-|


bridge

  p.m.(rhythm only)------------------------------------------------

Eb--------------------------------|--------------------------------|
Bb----------------------3---------|----------3---------------------|
Gb----4-4---------4--4----6-44----|------4-------6-----------------|
Db------------------4-------------|----5---------------------------|
Ab--------------------------------|--------------------------------|
Eb--3-3-3-3-3-3-3-7-7-7-7-7-7-7-7-|3-3-3-3-3-3-3-3-7-7-7-7-7-7-7-7-|



  p.m.(rhythm only)------------------------------------------------

Eb--------------------------------|--------------------------------|
Bb----------------------3---------|----------3---------------------|
Gb----4-4---------4--4----6-44----|------4-------6-----------------|
Db------------------4-------------|----5---------------------------|
Ab--------------------------------|--------------------------------|
Eb3-3-3-3-3-3-3-3-7-7-7-7-7-7-7-7-|3-3-3-3-3-3-3-3-2-2-2-2-2-2-2-2-|

Breakdown Piano arranged for guitar: Play several times

Eb7-----7-9-----9-10----107-----7-|
Bb----7-------7-------7-------7---|
Gb--7-------9-------9-------9-----|
Db9-------------------------------|
Ab--------9-----------------------|
Eb----------------10------12------|


Outro Chorus (Continue playing breakdown piano section until outro)

Rhythm Guitar
  p.m.-------------------------------------------------------------

Eb--------------------------------|--------------------------------|
Bb--------------------------------|--------------------------------|
Gb--------------------------------|--------------------------------|
Db--------------------------------|--------------------------------|
Ab--------9-9-9-9---------7-7-7-7-|--------9-9-9-9---------7-7-7-7-|
Eb7-7-7-7---------10101010--------|7-7-7-7---------10101010--------|
                                  |
                                  |
Lead Guitar                       |
Eb--------------------------------|--------------------------------|
Bb--------------------------------|--------------------------------|
Gb--------------------------------|--------------------------------|
Db--------------------------------|----------------42--------------|
Ab----5---4-2-1---5-------2-------|----5---4-21--4---------4-------|
Eb--------------------------------|--------------------------------|

Rhythm Guitar
  p.m.-------------------------------------------------------------

Eb--------------------------------|--------------------------------|
Bb--------------------------------|--------------------------------|
Gb--------------------------------|--------------------------------|
Db--------------------------------|--------------------------------|
Ab--------9-9-9-9---------7-7-7-7-|--------9-9-9-9---------7-7-7-7-|
Eb7-7-7-7---------10101010--------|7-7-7-7---------10101010--------|
                                  |
                                  |
Lead Guitar                       |
Eb--------------------------------|--------------------------------|
Bb--------------------------------|--------------------------------|
Gb--------------------------------|--------------------------------|
Db--------------------------------|----------------42--------------|
Ab----5---4-2-1---5-------2-------|----5---4-21--4---------4-------|
Eb--------------------------------|--------------------------------|


Play intro melody until outro.


Rhythm Guitar
  p.m.-------------------------------------------------------------

Eb--------------------------------|--------------------------------|
Bb--------------------------------|--------------------------------|
Gb--------------------------------|--------------------------------|
Db--------------------------------|--------------------------------|
Ab--------9-9-9-9---------7-7-7-7-|--------9-9-9-9---------7-7-7-7-|
Eb7-7-7-7---------10101010--------|7-7-7-7---------10101010--------|
                                  |
                                  |
Lead Guitar                       |
Eb--------------------------------|--------------------------------|
Bb--------------------------------|--------------------------------|
Gb--------------------------------|--------------------------------|
Db--------------------------------|----------------42--------------|
Ab----5---4-2-1---5-------2-------|----5---4-21--4---------4-------|
Eb--------------------------------|--------------------------------|
 
Rhythm Guitar
  p.m.-------------------------------------------------------------

Eb--------------------------------|--------------------------------|
Bb--------------------------------|--------------------------------|
Gb--------------------------------|--------------------------------|
Db--------------------------------|--------------------------------|
Ab--------9-9-9-9---------7-7-7-7-|--------9-9-9-9---------7-7-7-7-|
Eb7-7-7-7---------10101010--------|7-7-7-7---------10101010--------|
                                  |
                                  |
Lead Guitar                       |
Eb--------------------------------|--------------------------------|
Bb--------------------------------|--------------------------------|
Gb--------------------------------|--------------------------------|
Db--------------------------------|----------------42--------------|
Ab----5---4-2-1---5-------2-------|----5---4-21--4---------4---124-|
Eb--------------------------------|--------------------------------|

Outro

Eb----------------|----------------|----------------|
Bb----------------|----------------|----------------|
Gb----------------|----------------|----------------|
Db--------2-----5-|--4-2---4-2-----|--------2-------|
Ab4-454-2---5-45--|------54------4-|--454-2---5-----|
Eb3-3-3/\-2-2---3-|--3-3/\-2-2---3-|--3-3/\-2-2-----|



Hoped you liked it ;)'
Tap to rate this tab
 
# A B C D E F G H I J K L M N O P Q R S T U V W X Y Z