Song name
# A B C D E F G H I J K L M N O P Q R S T U V W X Y Z

Elena Siegman - Beauty Of Annihilation tab

     Please Rate!! \m/
FX
|--------------------------------------------------------------------|
|--------------------------------------------------------------------|
|--------------------------------------------------------------------|
|------------------------------------------5-----5-----5-----5-----5-|
|-2-4-5--2-4-5--2-4-5--2-4-5--2-4-5----1-4---1-4---1-4---1-4---1-4---|
|--------------------------------------------------------------------|

|-----------------------------------|---|-------------------------------|
|-----------------------------------|---|-------------------------------|
|-4---------------------------------|-4-|-----3-----3-----3-----3-----3-|
|-4---------------------------------|-4-|-----3-----3-----3-----3-----3-|
|-2---------------------------------|-2-|-----5-----5-----5-----5-----5-|
|-----------------------------------|---|-3-3---3-3---3-3---3-3---3-3---|

|----------------|---|-------------|
|----------------|---|-------------|
|-4------4--4--4-|-3-|-------------|
|-4------4--4--4-|-3-|-5-5-5-5-5-5-|
|-2--2-2-2--2--2-|-1-|-5-5-5-5-5-5-|
|----------------|---|-3-3-3-3-3-3-|

|----------------------------------------------------------------------------|
|----------------------------------------------------------------------------|
|----------------------------------------------------------------------------|
|-----4------4---4-----4---------------------------------4------4--4-----4---|
|-2-2-2--2-2-2---2-2-2-2-3------5------5--5-----5----2-2-2--2-2-2--2-2-2-2-2-|
|---------------------------3-3-3--3-3-3--3-3-3-3-3--------------------------|

|--------------------------------| |-------------|-----------------|
|--------------------------------| |-------------|-----------------|
|------3-----3-----3-----3-----3-| |-------------|-----------------|
|------3-----3-----3-----3-----3-| |-5-5-5-5-5-5-|-----------------|
|------5-----5-----5-----5-----5-| |-5-5-5-5-5-5-|-222-444-555-777-|
|-3-3----3-3---3-3---3-3---3-3---| |-3-3-3-3-3-3-|-----------------|


|-------------------------------------------------------------------------|
|-------------------------------------------------------------------------|
|-------------------------------------------------------------------------|
|------4--5--4--2-----4-4--5--4-----4-4--5--4----------------------4-4--5-|
|2--5--------------5-------------5-------------2--4--5-----4-4--5---------|
|-------------------------------------------------------3-----------------|


|-------------------------------------------------------------------------|
|-------------------------------------------------------------------------|
|-------------------------------------------------------------------------|
|4-4-4--5--4--4(5)-4--2--4--2--0------------------------------------------|
|-------------------------------------------------------------------------|
|-------------------------------------------------------------------------|

 that's all i know but please rate!!!!
Tap to rate this tab
 
# A B C D E F G H I J K L M N O P Q R S T U V W X Y Z