Song name
# A B C D E F G H I J K L M N O P Q R S T U V W X Y Z

Elena Siegman - Abracadavre tab

This song is actually played in drop G tuning, but since I only tabbed the intro, I 
figured it would make it alot easier on everybody if I put it in standard tuning.

Email:Koolkid247@live.com

Tuning:Standard

e|-----17-----------17-------------17----------------------------------------|
B|---------15------------15------------15------------------------------------|
G|-------------14------------14----------------------------------------------|    X2
D|---------------------------------------------------------------------------|
A|---------------------------------------------------------------------------|
E|---------------------------------------------------------------------------|

e|-----18---------18--------18-----------------------------------------------|
B|---------15---------15--------15-------------------------------------------|
G|------------15---------15--------------------------------------------------|
D|---------------------------------------------------------------------------|
A|---------------------------------------------------------------------------|
E|---------------------------------------------------------------------------|

e|----20--------18-------18--------------------------------------------------|
B|-------18--------16-------15-----------------------------------------------|
G|----------17--------15-----------------------------------------------------|
D|---------------------------------------------------------------------------|
A|---------------------------------------------------------------------------|
E|---------------------------------------------------------------------------|

Then repeat everything until the heavy guitar riffs come in...
Tap to rate this tab
# A B C D E F G H I J K L M N O P Q R S T U V W X Y Z