Song name
# A B C D E F G H I J K L M N O P Q R S T U V W X Y Z

Elena Siegman - Beauty Of Annihilation tab

***********************************************************************************
This is the Call of Duty: World at War Der Riese easter egg song.
The only official tabs posted by Kevin Sherwood are for an 8-string, but he also shows 
you how to transpose the tabs. So here is the official tabs transposed to a 6-string so 
you don't have to go through and do it yourself.
Also while guitars 1 and 3 are separate guitars they can be played by one guitar.
If anyone finds any mistakes just let me know.
***********************************************************************************
Beauty of Annihlation
featured in Call of Duty: World at War's Nazi Zombie mode.
(Shi No Numa death song)
(Der Riese easter egg song)
Tuning: (D G C F A D)


written, produced, mixed,
and all instruments performed by Kevin Sherwood at Treyarch.
http://www.facebook.com/pages/Kevin-Sherwood/119272406300?ref=nf
http://twitter.com/newdnewbs

Vocals by Elena Siegman
http://www.facebook.com/pages/Elena-Siegman/110770233598?ref=sgm
http://twitter.com/elenaYAY

Vocal Engineering Collin Ayers

Mastered by Oscar Zambrano at
http://zampolproductions.com

Additional production by Brian Tuey.  Treyarch's Audio director
http://briantuey.blogspot.com/

Enjoy!

Intro

guitar 1 (fx)

D--------------------------------|---------------------------------|
A--------------------------------|---------------------------------|
F--------------------------------|---------------------------------|
C------------------7--7--7--7--7-|------------------7--7--7--7--7--|
G467467467467467436-36-36-36-36-3|467467467467467436-36-36-36-36-3-|
D--------------------------------|---------------------------------|

guitar 1 (fx)

D--------------------------------|---------------------------------|
A--------------------------------|---------------------------------|
F--------------------------------|---------------------------------|
C------------------7--7--7--7--7-|------------------7--7--7--7--7--|
G467467467467467436-36-36-36-36-3|467467467467467436-36-36-36-36-3-|
D--------------------------------|---------------------------------|

guitar 2 (dist)

D--------------------------------|---------------------------------|
A--------------------------------|---------------------------------|
F--------------------------------|------------------5--5--5--5--5--|
C--------------------------------|------------------x--x--x--x--x--|
G4---------------3---------------|4-----------------7--7--7--7--7--|
D4---------------3---------------|4---------------55-55-55-55-55-5-|

guitar 1 (fx) (This is 1 measure of 2/4 then back to 4/4)

D--------|
A--------|
F--------|
C--------|
G46746746|
D--------|

guitar 1 (fx)

D--------------------------------|---------------------------------|
A--------------------------------|---------------------------------|
F--------------------------------|---------------------------------|
C------------------7--7--7--7--7-|------------------7--7--7--7--7--|
G467467467467467436-36-36-36-36-3|467467467467467436-36-36-36-36-3-|
D--------------------------------|---------------------------------|

guitar 2 (dist)

D--------------------------------|--------------------------------|
A--------------------------------|--------------------------------|
F--------------------------------|--------------------------------|
C--------------------------------|--------------------------------|
G4-------4--4--4-3---------------|4-------4--4--4-----------------|
D4-------4--4--4-3---------------|4-------4--4--4-5--5--5-5--5--5-|

guitar 1 (fx)

D--------------------------------|---------------------------------|
A--------------------------------|---------------------------------|
F--------------------------------|---------------------------------|
C------------------7--7--7--7--7-|------------------7--7--7--7--7--|
G467467467467467436-36-36-36-36-3|467467467467467436-36-36-36-36-3-|
D--------------------------------|---------------------------------|

guitar 2 (dist)

D--------------------------------|---------------------------------|
A--------------------------------|---------------------------------|
F--------------------------------|------------------5--5--5--5--5--|
C--------------------------------|------------------x--x--x--x--x--|
G--4-----4--4---4--5-----5--5--5-|--4-----4--4--4---7--7--7--7--7--|
D444---444--44444555---555--55555|444---444--4444455-55-55-55-55-5-|

guitar 1 (fx)

D--------------------------------|---------------------------------|
A--------------------------------|---------------------------------|
F--------------------------------|---------------------------------|
C------------------7--7--7--7--7-|12-12-12-12-12-1-67-67-6-67-67-6-|
G367367367367367336-36-36-36-36-2|--2--2--2--2--2-3--3--3-3--3--3--|
D--------------------------------|---------------------------------|

guitar 2 (dist)

D--------------------------------|--------------------------------|
A--------------------------------|--------------------------------|
F--------------------------------|--------------------------------|
C--------------------------------|--------------------------------|
G--4-----4--4--4---5-----5--5--5-|--7-----7--7--7-----------------|
D444---444--44444555---555--55555|777---777--777772--2--2-2--2--2-|

guitar 1 (fx)                    guitar 3 (lead) (It's possible to have guitar 1 play 
this part too)

D--------------------------------|----------------|
A--------------------------------|----------------|
F--6--6--6--6--6---6--6--6--6--6-|6---8---9---11--|
C04-04-04-04-04-004-04-04-04-04-0|----------------|
G--------------------------------|4---6---7---9---|
D--------------------------------|----------------|

guitar 2 (dist)

D--------------------------------|----------------|
A--------------------------------|----------------|
F--------------------------------|----------------|
C--------------------------------|----------------|
G5-------------------------------|5---------------|
D5-------------------------------|5---------------|

Intro Chorus

guitar 3 (lead) (Again can be played by guitar 1)

D--------------------------------|--------------------------------|
A--------------------------------|--------------------------------|
F--------------------------------|--------------------------------|
C------------6---7---6-4---------|6---6-7---6-----6---6-7---6-----|
G----4-4-7-----------------7---7-|--------------7-----------------|
D--------------------------------|--------------------------------|

guitar 2 (dist)

D--------------------------------|---------------------------------|
A--------------------7-777777x555|---------------------------------|
F--------------------5-555555x555|---------------------------------|
C--------------------6-666666x666|---------------------------------|
G4---4-44777666227---7-777777x777|7---7-xx799999992---2-2277766622-|
D4---4-----------5---5-555555x555|7---7-xx--------2---2------------|

guitar 3 (lead)

D--------------------------------|----------------------------4542-|
A--------------------------------|---------------------------------|
F--------------------------------|---------------------------------|
C--------------------------------|6---6---7---6---6---6-7---6------|
G----4---6---7---0---2---6---7---|---------------------------------|
D--------------------------------|---------------------------------|

guitar 2 (dist)

D--------------------------------|---------------------------------|
A--------------------------------|---------------------------------|
F--------------------8-8---------|---------------------------------|
C----------------7---7-7-----9---|---------------------------------|
G4---4-44777666227---7-7-----7---|7---7-xx799997776---6------------|
D4---4-----------5--55-5---5-5---|7---7-xx--------4---4-4477766644-|

guitar 3 (lead)

D4---------------2---------------|
A--------------------------5-----|
F--------------------------------|
C--------------------------------|
G--------------------------------|
D--------------------------------|

guitar 2 (dist)

D--------------------------------|
A--------------------------------|
F--------------------------------|
C--------------------------------|
G5-------------------------------|
D5-------------------------------|

Verse 1

guitar 2 (dist)

D--------------------------------|---------------------------------|
A--------------------------------|---------------------------------|
F--------------------------------|---------------------------------|
C--------------------------------|---------------------------------|
G4-4-------------4-4-------------|5-5-------------5-5---67-764-----|
D4-4-------------4-4-------------|5-5-------------5-5-----2----2-2-|

D--------------------------------|---------------------------------|
A--------------------------------|---------------------------------|
F--------------------------------|---------------------------------|
C--------------------------------|---------------------------------|
G4-4-------------4-4-------------|7-7-------------2-2---245--------|
D4-4-------------4-4-------------|7-7-------------2-2------4-4-4-4-|

guitar 1 (fx)

D--------------------------------|--------------------------------|
A--------------------------------|--------------------------------|
F--------------------------------|--------------------------------|
C--------------------------------|--------------------------------|
G4---4--4---4--4---4--4---4--4---|----4------4------4------4--4---|
D--4---4--4---4--4---4--4---4--4-|5-4---45-4---45-4---45-4---4--4-|

guitar 2 (dist)

D--------------------------------|---------------------------------|
A--------------------------------|---------------------------------|
F--------------------------------|---------------------------------|
C--------------------------------|---------------------------------|
G4-4-------------4-4-------------|--7-----7---------2-----2--------|
D4-4-------------4-4-------------|5-5---555-----5-2-2---222-----22-|

guitar 1 (fx)

D--------------------------------|--------------------------------|
A--------------------------------|--------------------------------|
F--------------------------------|--------------------------------|
C--------------------------------|--------------------------------|
G4---4--4---4--4---4--4---4--4---|7---7--7---7------7------9--9---|
D--4---4--4---4--4---4--4---4--4-|--7---7--7---77-7---77-7---7--7-|

guitar 2 (dist)

D--------------------------------|---------------------------------|
A--------------------------------|---------------------------------|
F--------------------------------|---------------------------------|
C--------------------------------|---------------------------------|
G4-4-------------4-4-------------|7-7---777-----7-2-2---222---2-22-|
D4-4-------------4-4-------------|7-7---777-----7-2-2---222---2-22-|

Chorus 1

guitar 2 (dist)

D--------------------------------|---------------------------------|
A--------------------7-777777x555|---------------------------------|
F--------------------5-555555x555|---------------------------------|
C--------------------6-666666x666|---------------------------------|
G4---4-22777666227---7-777777x777|7---7-xx799999992---2-2277766622-|
D4---4-----------5---5-555555x555|7---7-xx--------2---2------------|

guitar 3 (lead)

D--------------------------------|----------------------------4542-|
A--------------------------------|---------------------------------|
F--------------------------------|---------------------------------|
C--------------------------------|---------------------------------|
G--------------------------------|---------------------------------|
D--------------------------------|---------------------------------|

guitar 2 (dist)

D--------------------------------|---------------------------------|
A--------------------------------|---------------------------------|
F--------------------8-8---------|---------------------------------|
C----------------7---7-7-----9---|---------------------------------|
G4---4-44777666227---7-7-----7---|7---7-xx799997776---6------------|
D4---4-----------5--55-5---5-5---|7---7-xx--------4---4-4477766644-|

guitar 3 (lead)

D4---------------2---------------|
A--------------------------5-----|
F--------------------------------|
C--------------------------------|
G--------------------------------|
D--------------------------------|

guitar 2 (dist)

D--------------------------------|
A--------------------------------|
F--------------------------------|
C--------------------------------|
G5-------------------------------|
D5-------------------------------|3
Tap to rate this tab
# A B C D E F G H I J K L M N O P Q R S T U V W X Y Z