Song name
# A B C D E F G H I J K L M N O P Q R S T U V W X Y Z

Elena Siegman - 115 tab

(sounds better if you hammer on)
D|------------------------------------------------------------|
A|-7-7-7-7-8-8-8-8-5-5-5-5-5-7-8-7----------------------------|
F|------------------------------------------------------------|
C|------------------------------------------------------------|
G|------------------------------------------------------------|
D|------------------------------------------------------------|

D|--------------------------3-2-0-0-1-0-----------------------|
A|-7-7-7-7-8-8-8-8-5-5-5-5------------------------------------|
F|------------------------------------------------------------|
C|------------------------------------------------------------|
G|------------------------------------------------------------|
D|------------------------------------------------------------|

D|-7-7-7-7-8-8-8-8-5-5-5-5-5-7-8-7----------------------------|
A|-7-7-7-7-8-8-8-8-5-5-5-5-5-7-8-7----------------------------|
F|-7-7-7-7-8-8-8-8-5-5-5-5-5-7-8-7----------------------------|
C|------------------------------------------------------------|
G|------------------------------------------------------------|
D|------------------------------------------------------------|

D|-7-7-7-7-8-8-8-8-5-5-5-5--3-2-0-0-1-0-----------------------|
A|-7-7-7-7-8-8-8-8-5-5-5-5--3-2-0-0-1-0-----------------------|
F|-7-7-7-7-8-8-8-8-5-5-5-5--3-2-0-0-1-0-----------------------|
C|------------------------------------------------------------|
G|------------------------------------------------------------|
D|------------------------------------------------------------|

Sorry Thats All I Know
Tap to rate this tab
 
# A B C D E F G H I J K L M N O P Q R S T U V W X Y Z