Song name
# A B C D E F G H I J K L M N O P Q R S T U V W X Y Z

Elevation Worship - Give Me Faith tab

-----------------------------------------------------------------
GIVE ME FAITH - Elevation Worship
-----------------------------------------------------------------
Tabbed by: Lopope

Tuning: Standard

Intro:
(Quietly)
e|----10----10----9----9----7----7----7----7---------------------|
B|---------------------------------------------------------------|
G|---9-----9-----9----9----9----9----9----9------X3--------------|
D|--7-----7-----7----7----7----7----7----7-----------------------|
A|---------------------------------------------------------------|
E|---------------------------------------------------------------|

Verse:
(Volume Swells)
..........you...soften..break...(etc)
e|--9-----7-----5-------5----------------------------------------|
B|--10----9-----7-------7----------------------------------------|
G|--9-----9-----6-------7----------------X2----------------------|
D|---------------------------------------------------------------|
A|---------------------------------------------------------------|
E|---------------------------------------------------------------|

Pre-chorus:
e|--------5~----------5~-----4-----------------------------------|
B|--2-3-5-------2-3-5------5-------------------------------------|
G|---------------------------------------------------------------|
D|---------------------------------------------------------------|
A|---------------------------------------------------------------|
E|---------------------------------------------------------------|

Chorus:
(Clean)
Pick notes out of these chords:

 D          A        E            F#m
Give me faith to trust what you say
 D           A        F#m            E    Bm
That you're good and your love is great
      D     A      E              D   E
I'm broken inside, I give you my life


(Verse)
(Pre-chorus)
(Chorus)-Distortion

Bridge:

e|-0--------0--------0-------0-----------------------------------| 
B|--10-------12-------14------15---------------------------------| 
G|------X4-------X4-------X4-----X4------------------------------| 
D|---------------------------------------------------------------| 
A|---------------------------------------------------------------| 
E|---------------------------------------------------------------| 
                                                                   
e|---------1717-1616---------------------------------------------| |
B|--17---------------1717----------------------------------------| |
G|-----X10------------------14--X12----1313-1414-----------------| |X3
D|---------------------------------------------------------------| |
A|---------------------------------------------------------------| |
E|---------------------------------------------------------------| |

e|--17TTTTTT------19TTTTTTT------21TTTTTTT-----------------------|
B|---------------------------------------------------------------|
G|---------------------------------------------------------------|
D|---------------------------------------------------------------|
A|---------------------------------------------------------------|
E|---------------------------------------------------------------|

(Pre-Chorus)
(Chorus)

| ~  sustain
| T  Tremolo Picking
Tap to rate this tab
 
# A B C D E F G H I J K L M N O P Q R S T U V W X Y Z