Song name
# A B C D E F G H I J K L M N O P Q R S T U V W X Y Z

Elevation Worship - Give Me Faith tab

------------------------------------
"Give Me Faith" - Elevation Worship
------------------------------------

Tabbed by: Josh Beatty
Email: joshbt94@hotmail.com

Tuning: EADGBe (standard tuning)

This is the NON-live version off of Elevation Worship's "Kingdom Come" album.
These tabs are straight from the video of the Elevation Worship guitarist teaching 
the lead parts of the song.

Intro:

e|-----10-----10----9-----9-----7-----7-----7-----7--------------------|
B|----------------------------------------------------(10~)------------|
G|---9------9-----9-----9-----9-----9-----9-----9-----^^^^-------------|
D|-7------7-----7-----7-----7-----7-----7-----7--(play-the-above-note)-|
A|-----------------------------------------------(when-entering-verse)-|
E|-----------------------------------------------------(section)-------|

Verse:

  A      E    F#m    D
e|--9--|--7--|--9--|--10--|
B|-10--|--9--|-10--|--10--|      Use swells to 
G|--9--|--9--|-11--|--11--|       create ambience
D|-----|-----|-----|------|
A|-----|-----|-----|------|
E|-----|-----|-----|------|

Pre-Chorus:

e|-------5~----------5~----4~--|
B|-2h3h5-------2h3h5-----5-----|
G|-----------------------------|
D|-----------------------------|
A|-----------------------------|
E|-----------------------------|

Chorus:

e|-9--------9-----------------------------|
B|-----10-------10---12---10--------10-12-|
G|---9----9---9----9----9----9----9-------|
D|-----------------------------11---------|
A|----------------------------------------|
E|----------------------------------------|

E|-9--------9--------9------------------|
B|-----10-------10-------10-12-9---9h10-|
G|---9----9---9----9---9---------9------|
D|--------------------------------------|
A|--------------------------------------|
E|--------------------------------------|

e|---10---9-------------9-----------------|
B|------------10---12-------10---9---9h10-|
G|-9----9---9----9----9---9----9---9------|
D|----------------------------------------|
A|----------------------------------------|
E|----------------------------------------|

e|---9--------9-----------------------------|
B|-------10-------10---12---10---12---10----|
G|-9---9----9---9----9----9----9----9----9~-|
D|------------------------------------------|
A|------------------------------------------|
E|------------------------------------------|

Pre-Bridge:

e|----0----------0----------0----------0-------------|
B|-10---(x4)--12---(x4)--14---(x4)--15---(x4)--17~~--|
G|---------------------------------------------------|
D|---------------------------------------------------|
A|---------------------------------------------------|
E|---------------------------------------------------|

Bridge:

e|----------------17-16----------------------------|
B|-17-17-17-17-17-------17-------------------------|
G|-------------------------14-14-14-14-14-14-13-14-|   (x3)
D|-------------------------------------------------|
E|-------------------------------------------------|

e|-17t-19t-b^21t--|
B|----------------|
G|----------------|
D|----------------|   (x1)
A|----------------|
E|----------------|

Solo (interlude before last bridge section):

e|-------0----0----0----------0----0-|
B|-12/14---14---14---14-12\14---14---|
G|-----------------------------------|
D|-----------------------------------|
A|-----------------------------------|
E|-----------------------------------|

E|----0----0---0---0---------------------------|
B|-14---14---5---5---5/10---12-----------10----|
G|------------------------9----9-11-9-11----9--|
D|---------------------------------------------|
A|---------------------------------------------|
E|---------------------------------------------|

e|----------0----0----0-------0----0----0----|
B|-10-12/14---14---14---12/14---14---14---14-|
G|-------------------------------------------|
D|-------------------------------------------|
A|-------------------------------------------|
E|-------------------------------------------|

e|---0---0---0---0----0----0----0------------|
B|-9---9---9---9---10---12---14---14b15b14~--|
G|-------------------------------------------|
D|-------------------------------------------|
A|-------------------------------------------|
E|-------------------------------------------|
Tap to rate this tab
 
# A B C D E F G H I J K L M N O P Q R S T U V W X Y Z