Song name
# A B C D E F G H I J K L M N O P Q R S T U V W X Y Z

Elevation Worship - Exalted One tab

------------------------------------------------------------------------
                     Exalted One by Elevation Worship
------------------------------------------------------------------------

Tabbed by: Josh Beatty
Email: joshbt94@hotmail.com
Tuning: EADGBe (standard)

Pre-Intro:
e|---------------------|
B|-~-------------------|
G|---------------------|
D|---------------------|
A|---------------------|
E|55--555--555--555--5-|
  1    2    3    4     (<---Counting)
  
Intro:
  F#m         D             A          A
e|-----0~---------0~-----------0~---------0~--------|
B|-2h3----2~--2h3----2~-0--2h3----2~--2h3----2~--0--|
G|--------------------------------------------------|
D|--------------------------------------------------| (x2)
A|--------------------------------------------------|
E|--------------------------------------------------|


Verse:
   A            F#m       D          A
e|--9~----------------------------5~---|
B|-10~--10--9--------------------------|
G|--9~---------9---6~---5h6~--5h6---p5~|
D|(11)---------------------------------| (x2)
A|-------------------------------------|
E|-------------------------------------|


Chorus:
    (We lift our eyes to You)
   D                         A                  
e|-9-----9--9-----9--9--9-|-9-----9--9-----9--9--9-|
B|-9h10-10--9h10-10-10-10-|-9h10-10--9h10-10-10-10-|
G|-9-----9--9-----9--9--9-|-9-----9--9-----9--9--9-|
D|------------------------|------------------------|
A|------------------------|------------------------|
E|------------------------|------------------------|
   E                 F#m
e|-9-9-9-9-9-9-9-9-|-9-----9--9--9-----9--9-|
B|-9-9-9-9-9-9-9-9-|-9h10-10-10-10h12-12-12-|
G|-9-9-9-9-9-9-9-9-|-9-----9--9--9-----9--9-|
D|-----------------|------------------------|
A|-----------------|------------------------|
E|-----------------|------------------------|

    (Our hope is found in You)
   D                         A                  
e|-9-----9--9-----9--9--9-|-9-----9--9-----9--9--9-|
B|-9h10-10--9h10-10-10-10-|-9h10-10--9h10-10-10-10-|
G|-9-----9--9-----9--9--9-|-9-----9--9-----9--9--9-|
D|------------------------|------------------------|
A|------------------------|------------------------|
E|------------------------|------------------------|
   E                 E
e|-9-9-9-9-9-9-9-9-|-9-9-9-9-9-9-9-9-|
B|-9-9-9-9-9-9-9-9-|-9-9-9-9-9-9-9-9-|
G|-9-9-9-9-9-9-9-9-|-9-9-9-9-9-9-9-9-|
D|-----------------|-----------------|
A|-----------------|-----------------|
E|-----------------|-----------------|
    (We lift our eyes to You)
   D                         A                  
e|-9-----9--9-----9--9--9-|-9-----9--9-----9--9--9-|
B|-9h10-10--9h10-10-10-10-|-9h10-10--9h10-10-10-10-|
G|-9-----9--9-----9--9--9-|-9-----9--9-----9--9--9-|
D|------------------------|------------------------|
A|------------------------|------------------------|
E|------------------------|------------------------|
                                           (Exalted One)
   E                 F#m                     D - A - E
e|-9-9-9-9-9-9-9-9-|-9-----9--9--9-----9--9-|--9~-|
B|-9-9-9-9-9-9-9-9-|-9h10-10-10-10h12-12-12-|-10~-|
G|-9-9-9-9-9-9-9-9-|-9-----9--9--9-----9--9-|--9~-|
D|-----------------|------------------------|-----|
A|-----------------|------------------------|-----|
E|-----------------|------------------------|-----|


Bridge: 
   D   F#m  A    E
e|--9-|-9-|--9-|-9-|
B|-10-|-9-|-12-|-9-|
G|--9-|-9-|--9-|-9-|
D|----|---|----|---|
A|----|---|----|---|
E|----|---|----|---|

(^Above patterns are strummed during Bridge)



Reference http://www.elevationworship.com/tutorials/ for tutorial video.
Tap to rate this tab
 
# A B C D E F G H I J K L M N O P Q R S T U V W X Y Z