Eleven - Now Is The Word tab

One of the best off of Howling Book.

Verse

d|-------------------------------------------------------------------|
A|-------------------------------------------------------------------|
F|-------------------------------------------------------------------|
C|------------------------------------8----8--------------------2-0--|
G|-11----11----9--7-10----10----9--7--9----9----9--7--4----4----3-2--|
D|-0~----------0--0--0~---------0--0--6----6----6--6--5----5----3-3--| 2x

(on the second phrase, this is the harmony that goes over it. this is also when the 
muted pick that follows the rhythm of the drums begins)

d|-------------------------------------------------------------------|
A|-------------------------------------------------------------------|
F|-------------9~---7--------------7--6---------------6--------------|
C|---------------------------------------------------------xxxx------|
G|---------------------------------------------------------xxxx------|
D|---------------------------------------------------------xxxx------|

    you honestly a lie        somber  smile    had enough   I swore I'd
d|-------------------------------------------------------------------|
A|-------------------------------------------------------------------|
F|-------------------------------------------------------------------|
C|------------------------------------8----8--------------------2-0--|
G|-11----11----9--7-10----10----9--7--9----9----9--7--4----4----3-2--|
D|-0~----------0--0--0~---------0--0--6----6----6--6--5----5----3-3--|

           hold it back      but I can't   not with you  this I will do
d|-------------------------------------------------------------------|
A|-------------------------------------------------------------------|
F|-------------------------------------------------------------------|
C|------------------------------------8----8--------------------2-0--|
G|-11----11----9--7-10----10----9--7--9----9----9--7--4----4----3-2--|
D|-0~----------0--0--0~---------0--0--6----6----6--6--5----5----3-3--|

continue in this fashion for the verses

Bridge

Gtr 1

     Hear it  Loudly~~~~~~~~ Feel it   Softly~~~~~~
d|--------------------------------------------------|
A|--------------------------------------------------|
F|-3---3---3--/10--10--10-\6---6---6--/10--10--10-\-|
C|-4---4---4--/11--11--11-\7---7---7--/11--11--11-\-|
G|-4---4---4--/11--11--11-\7---7---7--/11--11--11-\-|
D|-2---2---2--/9---9---9--\5---5---5--/9---9---9--\-|

Gtr 2 (Slide)

d|--------------------------------------------------|
A|--------11///18~~~-18\\\14~~~--14///18~~~---18\\\-|
F|--------11///18~~~-18\\\14~~~--14///18~~~---18\\\-|
C|--------------------------------------------------|
G|--------------------------------------------------|
D|--------------------------------------------------|

Gtr 1

     See it   Lightly~~~~~~  Hold it  Tightly
d|-----------------------------------------------------|
A|-----------------------------------------------------|
F|-3---3---3--/10--10--10-\6---6---6---5-5-5-5-5-5-5-5-|
C|-4---4---4--/11--11--11-\7---7---7---6-6-6-6-6-6-6-6-|
G|-4---4---4--/11--11--11-\7---7---7---6-6-6-6-6-6-6-6-|
D|-2---2---2--/9---9---9--\5---5---5---4-4-4-4-4-4-4-4-|
                                       *palm mute this part
Gtr 2 (Slide)

d|---------------------------------------------------///---|
A|--------11///18~~~-18\\\14~~~--14///13~~~--------13///16-|
F|--------11///18~~~-18\\\14~~~--14///13~~~--------13///16-|
C|---------------------------------------------------------|
G|---------------------------------------------------------|
D|---------------------------------------------------------|

Chorus (guitar 2 just follows the vocal harmony with a slide)

A            A minor
  And Now to Live

             E
 Live as You Could

         E minor
  Not Be Afraid

              A
 Strangled by Should

            A minor
 And Now to Clear

          E
 All This Away

            E minor
 And Now to Start

        A
 Again, Again

 I Feel It


   Now is  the  Word of the...
d|--------------------------|
A|--------------------------|
F|--------------------------|
C|-1-1-2-2-3-3-4-4-3-3-4-4--|
G|-0-0-0-0-0-0-0-0-0-0-0-0--|
D|--------------------------|

1st Lead

*this is done with a whammy and a lot of style, to which I have neither. So this is your 
basic, beginner approach to this lead just so you have something to play. It goes over 
the verse melody for one phrase.

  Day~~~~
d|----------------------------------------------------------------|
A|-9v~~~-9v/7v/5v-8v/7-5v~~---5/7\5-------------------------------|
F|----------------------------------6v~-6v/9v~--------------------|
C|--------------------------------------------------------xxxx2-0-|
G|----------------------------------------------9^9p7\10~-xxxx3-2-|
D|--------------------------------------------------------xxxx3-3-|

Verse 2 is the same, as are the 2nd bridge and 2nd chorus

2nd Lead

*same deal as the top except this is even more basic. I'll compinsate for the whammy 
with bends and slides the best I can, but you really need a whammy and to be good at it for 
these leads to work. Also, as I'm tabbing this acoustic, it will be an octive lower.

d|--------------------------------------------------------------|
A|--------------------------------------------------------------|
F|--------------------------------------------------------------|
C|--14\2/14v~-----12-14-17-14~-/17---------------------xxxx2-0--|
G|-------------12--------------------9^(10)9-7-10^\(0)-xxxx3-2--|
D|-----------------------------------------------------xxxx3-3--|

d|-----------------------------------------------------------------------|
A|----------------------------------------12-----------------------------|
F|-------------------9x--^(13)~12p9--11/13---^(12)11p9-12--11~12p11------|
C|-/12v\(18)-x--9/11-----------------------------------------------------|
G|------------------------------------------------------------------10v--|
D|-----------------------------------------------------------------------|

over the 2 0 part at the end of the lead
         3 2
         3 3

d|------------------------------|
A|-12------12------11~~~--------|
F|-15^(16)-15^(16)-14^(16)~~~~--|
C|------------------------------|
G|------------------------------|
D|------------------------------|

bridge is shortened by half and the chorus played twice, but the end is different:


Now is  the  Word of the   Now is the Word of the Now is the Word of the
d|-------------------------------------------------------------------------|
A|-------------------------------------------------------------------------|
F|-------------------------------------------------------------------------|
C|-1-1-2-2-4-4-5-5-4-4-5-5-1-1-2-2-4-4-5-5-4-4-5-5-1-1-2-2-4-4-5-5-4-4-5-5-|
G|-0-0-0-0-0-0-0-0-0-0-0-0-0-0-0-0-0-0-2-2-2-2-2-2-3-3-3-3-3-3-5-5-5-5-5-5-|
D|-------------------------------------------------------------------------|


Day~~~~
Now is  the  Word of the...
d|--------|
A|--------|
F|--------|
C|--------|
G|-11~~~--|
D|-0------|

Enjoy. Or don't. Either way.
Tap to rate this tab
 
# A B C D E F G H I J K L M N O P Q R S T U V W X Y Z