Song name
# A B C D E F G H I J K L M N O P Q R S T U V W X Y Z

Eleventeen - Come Clean tab

Eleventeen
Come Clean
http://www.sessionsrecords.com/bands/eleventeen/index.htm
http://www.eleventeenhq.com/

This is a band who deserve recognition not only back in the U.S but also worldwide

Amazing Rocking Track
INTRO

Guitar 1,2
--------------------------------------------------------------------------------|
--------------------------------------------------------------------------------|
-666666666666666666666666666--9999--4444----------------------------------------|
-666666666666666666666666666--9999--4444--7777777777777777777777777777----------|  x1
-444444444444444444444444444--7777--2222--7777777777777777777777777777----------|
------------------------------------------5555555555555555555555555555----------|

VERSE

Guitar 1
--------------------------------------------------------------------------------|
--------------------------------------------------------------------------------|
-666666666666666666666666666--9999--4444----------------------------------------|
-666666666666666666666666666--9999--4444--7777777777777777777777777777----------|  x3
-444444444444444444444444444--7777--2222--7777777777777777777777777777----------|
------------------------------------------5555555555555555555555555555----------|

Guitar 2
-9---9----9---9-12-9------------------------------------------------------------|
---9---9----9-------------------------------------------------------------------|
---------------------9-11-9-----------11-9--------------------------------------|
-----------------------------11~~~-11------11-----------------------------------|  x2
--------------------------------------------------------------------------------|
--------------------------------------------------------------------------------|

--------------------------------------------------------------------------------|
--------------------------------------------------------------------------------|
--------11-----------11-9--------11------------------11-9----------11-9---------|
-11h-p9----11h-p9-11------11h-p9----11-11h-p9-11h-p9------11~~~-11------11------|  x1
--------------------------------------------------------------------------------|
--------------------------------------------------------------------------------|

Guitar 1,2
--------------------------------------------------------------------------------|
--------------------------------------------------------------------------------|
----------------------9~~~------------------------------------------------------|
-5~~~---7~~~---8~~~---9~~~------------------------------------------------------|  x1
-5~~~---7~~~---8~~~---7~~~------------------------------------------------------|
-3~~~---5~~~---6~~~-------------------------------------------------------------|

CHORUS

Guitar 1,2
--------------------------------------------------------------------------------|
--------------------------------------------------------------------------------|
-666-6--999-------444-4--999----------------------------------------------------|
-666-6--999--777--444-4--999--777-----------------------------------------------|  x4
-444-4--777--777--222-2--777--777-----------------------------------------------|
-------------555--------------555-----------------------------------------------|

--------------------------------------------------------------------------------|
--------------------------------------------------------------------------------|
-------------9~~~~~~~~----------------------------------------------------------|
-7~~~~~~~~---9~~~~~~~~----------------------------------------------------------|
-7~~~~~~~~---7~~~~~~~~----------------------------------------------------------|
-5~~~~~~~~----------------------------------------------------------------------|

VERSE

Guitar 1
--------------------------------------------------------------------------------|
--------------------------------------------------------------------------------|
-666666666666666666666666666--9999--4444----------------------------------------|
-666666666666666666666666666--9999--4444--7777777777777777777777777777----------|  x3
-444444444444444444444444444--7777--2222--7777777777777777777777777777----------|
------------------------------------------5555555555555555555555555555----------|

Guitar 2
-99999999-12-12-12-9999--99999999-12-12-12-9999---------------------------------|
--------------------------------------------------------------------------------|
------------------------------------------------9-11-9----------11-9------------|
-------------------------------------------------------11~~~-11------11---------|  x2
--------------------------------------------------------------------------------|
--------------------------------------------------------------------------------|

--------------------------------------------------------------------------------|
--------------------------------------------------------------------------------|
--------11-----------11-9--------11-----------11--------11--9-11-9--------------|
-11h-p9----11-11h-p9------11h-p9----11-11h-p9----11h-p9-------------------------|  x1
--------------------------------------------------------------------------------|
--------------------------------------------------------------------------------|

Guitar 1,2
--------------------------------------------------------------------------------|
--------------------------------------------------------------------------------|
----------------------9~~~------------------------------------------------------|
-5~~~---7~~~---8~~~---9~~~------------------------------------------------------|  x1
-5~~~---7~~~---8~~~---7~~~------------------------------------------------------|
-3~~~---5~~~---6~~~-------------------------------------------------------------|

CHORUS

Guitar 1,2
--------------------------------------------------------------------------------|
--------------------------------------------------------------------------------|
-666-6--999-------444-4--999----------------------------------------------------|
-666-6--999--777--444-4--999--777-----------------------------------------------|  x4
-444-4--777--777--222-2--777--777-----------------------------------------------|
-------------555--------------555-----------------------------------------------|

BRIDGE

Guitar 1
--------------------------------------------------------------------------------|
--------------------------------------------------------------------------------|
--------------------------------------------------------------------------------|
--------------------------------------------------------------------------------|  x8
--------------------------------------------------------------------------------|
-5-5-5-5-5-5-5-5-5-5-5-5-5-5-5-5-1-1-1-1-1-1-1-1-1-1-1-1-1-1-1-1----------------|


Guitar 2
--------------------------------------------------------------------------------|
--------------------------------------------------------------------------------|
----9----------9-------9--------------------------------------------------------|
-11---11~~~-11---11-11---11--9~~~-7-4-9-9-9-------------------------------------|  x8
--------------------------------------------------------------------------------|
--------------------------------------------------------------------------------|

CHORUS

Guitar 1,2
--------------------------------------------------------------------------------|
--------------------------------------------------------------------------------|
-666-6--999-------444-4--999----------------------------------------------------|
-666-6--999--777--444-4--999--777-----------------------------------------------|  x6
-444-4--777--777--222-2--777--777-----------------------------------------------|
-------------555--------------555-----------------------------------------------|
Tap to rate this tab
# A B C D E F G H I J K L M N O P Q R S T U V W X Y Z