Song name
# A B C D E F G H I J K L M N O P Q R S T U V W X Y Z

Elexorien - The Curse tab

Elexorien the curse  ,

 guitar tab
Made by Frank

On youtube you can find the rithme better.
Use Drive or alot gain

tune : E-A-D-G-B-E

From 0s till 11s

------------------------------------------------------------------|
------------------------------------------------------------------|
------------------------------------------------------------------|
--0000-7--00-7-00-7--0000-3--00-3--00-3---------------------------|
--0000-7--00-7-00-7--0000-3--00-3--00-3-----(2x)------------------|
--0000-7--00-7-00-7--0000-3--00-3--00-3---------------------------|

11s till 30s (G1)

-----------------------------------------------------------------|
-----------------------------------------------------------------|
-----------------------------------------------------------------|
--333-65-333-65-33323-66656------------------(4x)----------------|
-----------------------------------------------------------------|
-----------------------------------------------------------------|

11s till 30s (G2)

-----------------------------------------------------------------|
-----------------------------------------------------------------|
--5-------------4----7-------------------------------------------|
--5-------------4----7-----------------------(4x)----------------|
--3-------------2----5-------------------------------------------|
-----------------------------------------------------------------|


30s till 38s

--------------------------------------------------------------------|
--------------------------------------------------------------------|
--------------------------------------------------------------------|
---007007007007003003003003--------(2X)-----------------------------|
---007007007007003003003003-----------------------------------------|
---007007007007003003003003-----------------------------------------|

39s till 48s

-------------------------------------------------------------------|
-------------------------------------------------------------------|
-------------------------------------------------------------------|
---77x77x77x73333333777777733333522--------------------------------|
---77x77x77x73333333777777733333522--------------------------------|
---77x77x77x73333333777777733333522--------------------------------|

49s till 57s

-----------------------------------------------------------------|
-----------------------------------------------------------------|
-----------------------------------------------------------------|
---007007007007003003003003--------(2X)--------------------------|
---007007007007003003003003--------------------------------------|
---007007007007003003003003--------------------------------------|

57s till 1:06s

----------------------------------------------------------------------|
----------------------------------------------------------------------|
----------------------------------------------------------------------|
---77x77x77x73333333777777733333522-----------------------------------|
---77x77x77x73333333777777733333522---(on end mini fade)--------------|
---77x77x77x73333333777777733333522-----------------------------------|

1:06s till 1:16s (G2 only)

------------------------------------------------------------------|
------------------------------------------------------------------|
---5-----4-----7----5----4-----8----------------------------------|
---5-----4-----7----5----4-----8----------------------------------|
---3-----2-----5----3----2-----6----------------------------------|
------------------------------------------------------------------|

1:16s till 1:24s (G2 & G1) more heavy sound

-----------------------------------------------------------------|
-----------------------------------------------------------------|
---5-----4-----7----5----4-----8---------------------------------|
---5-----4-----7----5----4-----8---------------------------------|
---3-----2-----5----3----2-----6---------------------------------|
-----------------------------------------------------------------|

1:24s till 1:34s
-------------------------------------------------------------------|
-------------------------------------------------------------------|
---555555-4444444-777777777-555555555-444444-8888888---------------|
---555555-4444444-777777777-555555555-444444-8888888---------------|
---333333-2222222-555555555-333333333-222222-6666666---------------|
-------------------------------------------------------------------|


1:34s / 1:44s

-----------------------------------------------------------------|
-----------------------------------------------------------------|
-----------------------------------------------------------------|
--333-65-333-65-33323-66656------------------(2x)----------------|
-----------------------------------------------------------------|
-----------------------------------------------------------------|

1:34s / 1:44s (G2)

-----------------------------------------------------------------|
-----------------------------------------------------------------|
--5-------------4----7-------------------------------------------|
--5-------------4----7-----------------------(2x)----------------|
--3-------------2----5-------------------------------------------|
-----------------------------------------------------------------|

1:45s / 1:52s

-------------------------------------------------------------------|
-------------------------------------------------------------------|
---555555-4444444-777777777-555555555-444444-3333333---------------|
---555555-4444444-777777777-555555555-444444-3333333---------------|
---333333-2222222-555555555-333333333-222222-1111111---------------|
-------------------------------------------------------------------|

1:52s / 2:11s

----------------------------------------------------------------------|
----------------------------------------------------------------------|
-33-35--33-16--33-35-8656---------------------------------------------|
-33-35--33-16--33-35-8656----------(4x)-------------------------------|
-11-13--11-14--11-13-6434---------------------------------------------|
----------------------------------------------------------------------|

2:11s / 2:16s  ( A)

---------------------------------------------------------------------------|
---------------------------------------------------------------------------|
-------------------5---7---------------------------------------------------|
----------0-00-----5---7---------------------------------------------------|
------3---0-00-----3---5---------------------------------------------------|
---035----0-00--035--------------------------------------------------------|

2:16s / 2:20s  ( B)

-------------------------------------------------------------------|
-------------------------------------------------------------------|
--9999888877776666-------------------------------------------------|
--9999888877776666-------------------------------------------------|
--7777666655554444-------------------------------------------------|
-------------------------------------------------------------------|

2:20s / 2:49s

-----------------------------------------------------------------|
-----------------------------------------------------------------|
----(A)----(B)----(A)----(B)-----(A)----(B)----------------------|
-----------------------------------------------------------------|
-----------------------------------------------------------------|
-----------------------------------------------------------------|

2:49s / 3:07s

--------------------------------------------------------------------|
--------------------------------------------------------------------|
--------------------------------------------------------------------|
--33-56--33-56--33-568656-------------------------------------------|
--33-56--33-56--33-568656----(4x)-----------------------------------|
--11-34--11-34--11-346434-------------------------------------------|
--------------------------------------------------------------------|

3:07s / 3:15s

------------------------------------------------------------------|
------------------------------------------------------------------|
---5---4---7---8----5----4-----7----5-3-5-4-3---------------------|
---5---4---7---8----5----4-----7----5-3-5-4-3---------------------|
---3---2---5---6----3----2-----5----3-1-3-2-1---------------------|
------------------------------------------------------------------|

3:15s / 3:26s

-----------------------------------------------------------------|
-----------------------------------------------------------------|
-----------------------------------------------------------------|
---5555555-44444-777-8888-5555-4444-7777-555-3333----------------|
---5555555-44444-777-8888-5555-4444-7777-555-3333----------------|
---3333333-22222-555-6666-3333-2222-5555-333-1111----------------|
-----------------------------------------------------------------|


3:26s / 3:45s

----------------------------------------------------------------------|
----------------------------------------------------------------------|
----------------------------------------------------------------------|
--------6535---------6535653------------------------------------------|
--00000-6535--00000--6535653------(4x)--------------------------------|
--00000-4313--00000--4313431------------------------------------------|
--00000-------00000---------------------------------------------------|

3:45s / 4:18s

-------------------------------------------------------------------|
-------------------------------------------------------------------|
--------------------6----3-----------------------------------------|
---5------565-------6----3--3----------(4x)------------------------|
---5------565-------4----1--3--------------------------------------|
---3-000--343--000----------1--------------------------------------|

4:18s / 4:27s

------------------------------------------------------------------|
------------------------------------------------------------------|
------------------------------------------------------------------|
--0000-7--00-7-00-7--0000-3--00-3--00-3---------------------------|
--0000-7--00-7-00-7--0000-3--00-3--00-3-----(2x)------------------|
--0000-7--00-7-00-7--0000-3--00-3--00-3---------------------------|

4:27s / 4:46s

-----------------------------------------------------------------------|
-----------------------------------------------------------------------|
---555555-4444444-777777777-555555555-444444-8888888-------------------|
---555555-4444444-777777777-555555555-444444-8888888----(2x)-----------|
---333333-2222222-555555555-333333333-222222-6666666-------------------|
-----------------------------------------------------------------------|

4:46s / 5:05s (G1)


-----------------------------------------------------------------|
-----------------------------------------------------------------|
-----------------------------------------------------------------|
--333-65-333-65-33323-66656------------------(4x)----------------|
-----------------------------------------------------------------|
-----------------------------------------------------------------|

4:46s / 5:05s (G2)

-----------------------------------------------------------------|
-----------------------------------------------------------------|
--5-------------4----7-------------------------------------------|
--5-------------4----7-----------------------(4x)----------------|
--3-------------2----5-------------------------------------------|
-----------------------------------------------------------------|

5:05s / 5:09s


-------------------------------------------------------------------|
-------------------------------------------------------------------|
--(drum)-----------------------------------------------------------|
--------------3----------------------------------------------------|
--------------3--(ring)------(fade)--------------------------------|
--------------3----------------------------------------------------|

http://elexorien.com/
Tap to rate this tab
# A B C D E F G H I J K L M N O P Q R S T U V W X Y Z