Song name
# A B C D E F G H I J K L M N O P Q R S T U V W X Y Z

Elf Power - Let The Serpent Sleep tab

Help us improve GuitareTab! Take a short survey!
-------------------------------------------------------------------------------
			     LET THE SERPENT SLEEP - by Elf Power
-------------------------------------------------------------------------------
Tabbed by: Stefanos Gamao Aytoprosopidis

Email:adrenalineaddict_stefanos@yahoo.com



Myspace: http://www.myspace.com/64728263




Tuning: normal EADGBe



Chords:

E       D       A

022100 xx0232 x02220

or

x799xx x577xx 577555






    E          D   A   A
The day turns into night

   E          D   A   A
The dog will always bite

(etc etc)
The serpent's underground
He lies without a sound 
So let the serpent sleep  (some keyboards' stuff going on)
Oh let the serpent sleep
We're frozen underneath
So let the serpent sleep

The worm will eat the peach
There's pebbles on the beach
The swine is in the mud
The eagle flies above
So let the serpent sleep
Oh let the serpent sleep
We're frozen underneath
So let the serpent sleep

(same chords)

-----guitar melody----- 


The ocean lives and breathes
And man creates machines
Children run away
And night turns into day
So let the serpent sleep
Let the serpent sleep
We're frozen underneath
So let the serpent sleep

Let the serpent sleep
Let the serpent sleep
We're frozen underneath
So let the serpent sleep


-----guitar melody-----  && some sweet keyboards stuff i'd tab but i don't have keyboards =[


end of song.


guitar melody:

e|---------------------------------------------------------------------------|
B|---------------------------------------------------------------------------|
G|---------------------------------------------------------------------------|
D|-----------7-7-9-11--11-11-11--11\12-12-12-11-12-11-11-11/7----------------|
A|--7--7-7-9-----------------------------------------------------------------|
E|---------------------------------------------------------------------------|



e|---------------------------------------------------------------------------|
B|---------------------------------------------------------------------------|
G|---------------------------------------------------------------------------|
D|-----------------7--7---9--11-11-11-11-12-11-9-11-9-7-9-7------------------|
A|--7---7---7--9-------------------------------------------------------------|
E|---------------------------------------------------------------------------|


E chord can be played either on 022100 or x799xx
or both if you have 2 guitars.


Tsavale vgale tis patates apto tigani, erhomai.

kai Marko mathe ta tragoudia gia na paizo ta sola.
Related for Let The Serpent Sleep tab