Song name
# A B C D E F G H I J K L M N O P Q R S T U V W X Y Z

Elfed Hayes - Bluebirds tab

 I noticed that there is no tab for this song, and it sounds pretty awesome on acoustic 
guitar. so this is how i play bluebirds by elfed hayes.

Elfeds website:
http://www.audionetwork.com/composer/elfed-hayes_32.aspx



 -----------------------------|
 -----------------------------|
 2--0-------------------------|
 ------h4--0--2--h4--2--h4--0-|
 -----------------------------|
 -----------------------------|


 -----------------------------|
 -----------------------------|
 2--0-------------------------|
 ------h4--0--h2--h4--2--0----|
 ---------------------------0-|
 ---------------------------0-|


 -----------------------------|
 -----------------------------|
 2--0-------------------------|
 ------h4--0--2--h4--2--h4--0-|
 -----------------------------|
 -----------------------------|


 -----------------------------|
 -----------------------------|
 2--0-------------------------|
 ------h4--0--h2--h4--2--0----|
 ---------------------------0-|
 ---------------------------0-|


 -----------------------------------------|
 -----3-------------------------3---------|
 0--4---4--0--h2--4--0----0--4-----4--0---|
 -----------------------------------------|
 -----------------------------------------|
 -----------------------------------------|


 --------------------------------------------|
 ------3-------------------------------------|
 0--4----4--0--h2--4--0----4--4--2--2--------|
 --------------------------------------------|
 --------------------------------------------|
 --------------------------------------------|



 -----------------------------|
 -----------------------------|
 2--0-------------------------|
 ------h4--0--2--h4--2--h4--0-|
 -----------------------------|
 -----------------------------|


 -------------------------------|
 -------------------------------|
 2--0---------------------------|
 ------4--0--2\4--2---p0---0----|
 --------------------------0----|
 --------------------------0----|
Tap to rate this tab
# A B C D E F G H I J K L M N O P Q R S T U V W X Y Z