Song name
# A B C D E F G H I J K L M N O P Q R S T U V W X Y Z

Elfen Lied - Lilium tab

Elfe Lied
Lilium tab

----------------------------------------2----------------------------------------------------|
------3-----------------3--------------------------------------------------------------------|
---0-----2--3-3------0-----2--3-0--3---------------------------------------------------------|
---------------------------------------------------------------------------------------------|
---------------------------------------------------------------------------------------------|
---------------------------------------------------------------------------------------------|

-------0------0-----2------------0-----------------------------------------------------------|
----------3------------3--2--3---------------------0-----------------------------------------|
---2--------------------------------0-------1--2-------2------2---1--------------------------|
---------------------------------------------------------------------------------------------|
---------------------------------------------------------------------------------------------|
---------------------------------------------------------------------------------------------|

-------0-----0-----2-----------------------------2--1--------1---2---------------------------|
----------3------------3--2--3------0-------------------4------------------------------------|
---2------------------------------------2--1-------------------------------------------------|
---------------------------------------------------------------------------------------------|
---------------------------------------------------------------------------------------------|
---------------------------------------------------------------------------------------------|

------------------------------------0--------------------------------------------------------|
-------0---2---3------------3---2------------3---2-------------------------------------------|
----2---------------2---1---------------2----------------------------------------------------|
---------------------------------------------------------------------------------------------|
---------------------------------------------------------------------------------------------|
---------------------------------------------------------------------------------------------|

---0--------------------------0--------------------------------------------------------------|
----------------2---0-----3------0-----------------------------------------------------------|
------2----1---------------------------------------------------------------------------------|
---------------------------------------------------------------------------------------------|
---------------------------------------------------------------------------------------------|
---------------------------------------------------------------------------------------------|
Tap to rate this tab
# A B C D E F G H I J K L M N O P Q R S T U V W X Y Z