Song name
# A B C D E F G H I J K L M N O P Q R S T U V W X Y Z

Elgibbor - Knights Of Christ tab

Help us improve GuitareTab! Take a short survey!
here is the link http://www.elgibbor.kdm.pl/index.htm

this is all i can figure out so far i believe it's in drop D
i can't really hear the guitar for the rest of the song sorry



E|------------------|
B|------------------|
G|------------------| x13
D|--2------10\9\8---|
A|--2------10\9\8---|
D|--2------10\9\8---| 

i think the rest is just trempicking

E|---------------------|
B|---------------------|
G|---------------------|
D|---2-----10-----9----|
A|---2-----10-----9----|
D|---2-----10-----9----|


symbol

\=slide down 
Related for Knights Of Christ tab