Song name
# A B C D E F G H I J K L M N O P Q R S T U V W X Y Z

Eli Paperboy Reed And The True Loves - Am I Wasting My Time tab

Help us improve GuitareTab! Take a short survey!
I am basing this around the 'acoustic' version he does, not on the studio one.

Some of the timings a little hard to write down, there's a lot of muting, just listen to 
old track to get the timing like!

                       C

E-----------------|----8---8-----8---8---8--8--8----|
B-----------------|----8---8h10--10--10--8--8--8h10-|
G-----5-----------|----9---9-----9---9---9--9--9----|
D-5-7---7-5-------|----10--10----10--10--10-10-10---|
A-----------7-5---|----10---------------------------|
E-----------------|-8--8----------------------------|

   D7                          E7

E--5--5-----5--5--5--5--5---|--7--7-----7--7--7--7--7---|
B--6--6-----6--6--6--6--6---|--8--8-----8--8--8--8--8---|
G--5--5h7---7--7--5--5--5h7-|--7--7h9---9--9--7--7--7h9-|
D--7--7-----7--7--7--7--7---|--9--9-----9--9--9--9--9---|
A--5--5-----5--5--5--5--5---|--7--7-----7--7--7--7--7---|
E---------------------------|---------------------------|

   F6         C

E--10--10--X--8----8-----------|--8---8--X------12p10-------------|
B--10--10--X--8----8-----------|--8---8--X------------13--8h10----|
G--10--10--X--9----9---5----5--|--9---9--X--9/12---------------9--|
D--10--10--X--10---10--5h7--5--|--10--10-X------------------------|
A--8---8---X--10---10----------|--10--10-X------------------------|
E-------------8----8-----------|----------------------------------|

   F6

E--------10--10--X-----------------------------|
B--------10--10--X-----------------------------|
G--------10--10--X-----------------------------|
D----10--10--10--X--------10-10-10--10h12------|
A--8-----8---8---X--10/12------------------12--|
E----------------------------------------------|

   G6                                  F6        C

E--12--12--X-12--12--12--12--12----|--10--10--X--8----8-----------|
B--12--12--X-12--12--12--12--12----|--10--10--X--8----8-----------|
G--12--12--X-12--12--12--12--12----|--10--10--X--9----9---5----5--|
D--12--12--X-12--12--12--12--12----|--10--10--X--10---10--5h7--5--|
A--10--10--X-10--10--10--10--10----|--8---8---X--10---10----------|
E----------------------------------|-------------8----8-----------|

Thanks, please rate/comment

A. Taylor

http://www.myspace.com/elipaperboyreed
Related for Am I Wasting My Time tab