Eli Paperboy Reed And The True Loves - Come And Get It tab

Intro: (w/Riff 1)

Riff 1:
|---------------------|-----------------------------|
|---------------------|-----------------------------|
|---------------------|-----------------------------|
|------------12-------|-12-12-11-----------12-------|
|------12h14----14p12-|----------14--12h14----14p12-|
|---------------------|-----------------------------|


|----------------------------|------------------------------|
|----------------------------|------------------------------|
|----------------------------|------------------------------|
|-------------------12-------|-12-12-11-----------12--------|
|-10-10-9-----12h14----14p12-|----------14--12h14----14p12--|
|---------12-----------------|------------------------------|


|----------------------------|
|----------------------------|
|----------------------------|
|-------------------12-------|
|-10-10-9-----12h14----14p12-|
|---------12-----------------|


|-----------------------------|-------------------------|
|-----------------------------|-------------------------|
|-----------------------------|-------------------------|
|-12-12-11-----------12-------|----------------12-------|
|----------14--12h14----14p12-|-10-10-9-----14----14----|
|-----------------------------|---------12--------------|


Pre-Verse: 

D
If you want the love of a man,
         G          A      
Come and get it (oh baby yeah)
D
If you want the love of a man,
         G                 A   
Come and get it, (all right now)


Verse 1:

D                         G
If you want the love of a real good man
D
Come and shout me 
            G
I make you understand
F#m F#m        F#m F#m Fm Em
    Don't just look
Em     Em      Em     Em Fm F#m
  Come on and take it
F#m        F#m   F#m 
Cause what i've got
F#m      Fm G G                   A A
  You know      you can't fake it


chorus:
D
If you want the love of a man,
         G       A
Come and get it
D
If you want the love of a man,
                G        A
You got to get with it
D
If you want the love of a man,
         G        A
Come and get it
D
If you want the love of a man,
                G       A
You got to get with it


Verse 2:

Listen
Remember girl, I've been around the block
My legs are shied, but I won't stop
It's your turn to make a choice
Don't just sit there girl


chorus:

If you want the love of a man,
Come and get it
If you want the love of a man,
You got to get with it
If you want the love of a man,
Come and get it
If you want the love of a man,
You want to get with it


Bridge:

         G   F#m Em             D    C#m  Bm
And then all my  love will come tumb-ling down

Riff 2:
|--------------------|
|--------------------|
|--------------------|
|-------4-2----------|
|-0-2-5-----5-2-3----|
|--------------------|

C                     D
Quit playing games
                Bm    E  D C#m C
Beat around the bush
G                    Em
All that love really needs is
               G       G       A
Just a little    pitty     pussssh


chorus:

So, if you want the love of a man,
Come and get it (I said come on now)
If you want the love of a man,
You got to get with it (You got to got to get on)
If you want the love of a man,
Come and get it (Come on now)
If you want the love of a man,
You want to get with it


Outro:

Em F F#m F#m        F#m F#m Fm Em

Em     Em      Em     Em Fm F#m
 
F#m        F#m   F#m 

F#m      Fm G G                   A A


Riff 1

Ohohhh baby

Ohhh I like that now
Come on now baby  Ohhhhhoooooooooo


  
chorus: x 3

If you want the love of a man,
Come and get it (Oh come on ,come and get it baby)
If you want the love of a man,
You got to get with it (Cause I now you want it)
If you want the love of a man,
Come and get it (I know you you need it)
If you want the love of a man,
You want to get with it (You got to love it, love it, yeaohhhhhhhh)


If you want the love of a man,
Come and get it (Just don't be shy)
If you want the love of a man,
You got to get with it (You know I'm your guy)
If you want the love of a man, (Just show me baby)
Come and get it (All in I'm yours(?))  
If you want the love of a man,
You want to get with it (I'll always be there yeaohhhhhhh)


If you want the love of a man,
Come and get it (I know you want it)
If you want the love of a man,
You got to get with it (I just couldn't help it)
If you want the love of a man,
Come and get it (It's all for you)
If you want the love of a man,(You know I need you)
You want to get with it (Oohhhhh yeaohhhhhhh)
Tap to rate this tab
 
# A B C D E F G H I J K L M N O P Q R S T U V W X Y Z