Song name
# A B C D E F G H I J K L M N O P Q R S T U V W X Y Z

Eli Young Band - Guinevere tab

This is my first tab so if its not perfect sorry!


e-------------------------------3-------------------------------------|
B--------1---------------1-1h3------------------1-----1-------------1-|
G----------0-----------0---0------------------0---0h2---2-0-------0---|
D---0h2------0h2---0h2------------0h2p0---0h2-----2-------2---0h2-----|
A---3---------------------------------------------0-------0-----------|
E---------------------------------------------------------------------|


 ---------0----|
 -----1---1----|
 -0h2---2-2----|
 -3-------3----|
 ---------0----|
 --------------|
Tap to rate this tab
# A B C D E F G H I J K L M N O P Q R S T U V W X Y Z