Song name
# A B C D E F G H I J K L M N O P Q R S T U V W X Y Z

Eli Young Band - Guardian Angel tab

-------------------------------------------------------------------------------
			     Guardian Angel - Eli Young Band
-------------------------------------------------------------------------------
Tabbed by: Anonymous
Email: joshramirez001@gmail.com

Tuning: Standard
I don't have the solo for the song sorry


Intro/Verse
e|---------------------------------------------------------------------------|
B|---------------------------------------------------------------------------|
G|-----11--9--7--------------------------------------------------------------|
D|----------------0----------------------------------------------------------|
A|---------------------------------------------------------------------------|
E|---------------------------------------------------------------------------|

Pre-Chorus
e|---------------------------------------------------------------------------|
B|---------------------------------------------------------------------------|
G|----------------2-7--------------------------------------------------------|
D|------5-4-2-5-4-2-7--------------------------------------------------------|
A|------5-4-2-3-4-0-5--------------------------------------------------------|
E|------3-2-0-3-2------------------------------------------------------------|

Chorus
e|---------------------------------------------------------------------------|
B|---------------------------------------------------------------------------|
G|------------7--------------------------------------------------------------|
D|------2-4/5-7--------------------------------------------------------------|
A|------2-4/5-5--------------------------------------------------------------|
E|------0-2/3----------------------------------------------------------------|

Order:
Intro/Verse x8
Pre-Chorus x1
Verse x4
Pre-Chorus x1
Chorus x 1
Verse x1 (No Lyrics)
Chorus x 2
Verse x4
Pre-Chorus x1
Verse x4
Chorus x 1
Verse x1 (No Lyrics)
Chorus x 2
Solo
Chorus x 1
Verse x1 (No Lyrics)
Chorus x 2

| /  slide up
| \  slide down
| h  hammer-on
| p  pull-off
| ~  vibrato
| +  harmonic
| x  Mute note
Tap to rate this tab
 
# A B C D E F G H I J K L M N O P Q R S T U V W X Y Z