Song name
# A B C D E F G H I J K L M N O P Q R S T U V W X Y Z

Eli Young Band - Crazy Girl chords

Highlighted       Show chord diagrams
-----------------------------------------------------------------------
			           Crazy Girl - Eli Young Band
-------------------------------------------------------------------------------
Tabbed by:DrHess84
Capo II (Relative to capo)

Tuning:Standard

Intro:

e|-------2--0--------------0--2----------------------------------------------|
B|----3--------3--------3----------------------------------------------------|
G|-2--------------2--2-------------------------------------------------------|
D|-0-----------------0-------------------------------------------------------|
A|---------------------------------------------------------------------------|
E|---------------------------------------------------------------------------|

Verse 1:

Bm                      G
Baby why you wanna cry? You really oughta know that I
D                 A  
Just have to walk away sometimes
Bm                            G
We're gonna do what lovers do We're gonna have a fight or two
D                 F#m
But I ain't never changin' my mind

Chorus:

G     D               A
Crazy girl, don't you know that I love you?
G              D        A
And I wouldn't dream of goin' nowhere
G     D           A
Silly woman, come here, let me hold you
Em7                     G               A    D
Have I told you lately? I love you like crazy, girl


Verse 2:

Bm                         G
Wouldn't last a single day I'd probably just fade away
D                A
Without you, I'd lose my mind
Bm                         G
Before you ever came along I was livin' life all wrong
D                             F#m
Smartest thing I ever did was make you all mine


G     D               A
Crazy girl, don't you know that I love you?
G              D        A
And I wouldn't dream of goin' nowhere
G     D           A
Silly woman, come here, let me hold you
Em7                     G               A    G        D   G   D
Have I told you lately? I love you like crazy, girl


G     D               A
Crazy girl, don't you know that I love you?
G              D        A
And I wouldn't dream of goin' nowhere
G     D           A
Silly woman, come here, let me hold you
Em7                     G               
Have I told you lately? I love you like 

G     D               A
Crazy girl, don't you know that I love you?
G              D        A
And I wouldn't dream of goin' nowhere
G     D           A
Silly woman, come here, let me hold you
Em7                     G               A    D        
Have I told you lately? I love you like crazy, girl

     G
Like crazy
   D
Crazy girl
     G       D
Like crazy

Tap to rate this tab
# A B C D E F G H I J K L M N O P Q R S T U V W X Y Z