Eli Young Band - When It Rains tab

Intro/Outro Part   *Very easy, figure out timing yourself*


E------------------------------------------------------|
B------------------------------------------------------|
G------------------------------------------------------|
D------------5---------------------5-------------------|
A--0-2-3-5/7--5-2-2vv(0)-0-2-3-5/7---5-3/5-2-0---2vvv--|
E-5---------------------5---------------------3/5----5-|

Verse Riff

E-----------------------------------------------------|
B-----------------------3-----------------------------|
G-4/7/5---5/7/4/7/5-----4-7/5-------------------------|
D-5/9/7---7/9/5/9/7-------9/7-------------------------|
A-----------------------------------------------------|
E-----------------------------------------------------|


Solo

E-----------------------------------------------------|
B--------------------------------5-3-1----------------|
G-4h5p4---4h5p4---4h5p4----------------4-2------------|
D-------7-------7-------7--5-7-------------5-7-5-7-2--|
A------------------------------7----------------------|
E-----------------------------------------------------|

That's it pretty much
Tap to rate this tab
 
# A B C D E F G H I J K L M N O P Q R S T U V W X Y Z