Song name
# A B C D E F G H I J K L M N O P Q R S T U V W X Y Z

Eli Young Band - Even If It Breaks Your Heart tab

-----------------------------------------------------------------------------
                    Even if it Breaks Your Heart - Eli Young Band
-----------------------------------------------------------------------------
Tabbed by:Nick Rohla

Solo was missing

Tuning:

e|------------------------------------------------------------------------|
B|--10-----10----10-------------------------------------------------------|
G|--12b14--12b14-12b14r12-9-12------------------12-12---------------------|
D|-----------------------------12s14s12--10--12b------12br--10h12p10~~----|
A|------------------------------------------------------------------------|
E|------------------------------------------------------------------------|

e|----------------------------------12------------------------------------|
B|----------------------------------15b17--13-----------------------------|
G|--------14s12--------12h14-12-14------------15~~~-----------------------|
D|--12-14--------12h14----------------------------------------------------|
A|------------------------------------------------------------------------|
E|------------------------------------------------------------------------|

e|-------------------------0---0---0---0---0---0---0----------------------|
B|-------13------8--------------------------------------------------------|
G|---12b------7b---7s5--10---9---7---5---4---2---0---2s5s2----------------|
D|------------------------------------------------------------------------|
A|------------------------------------------------------------------------|
E|------------------------------------------------------------------------|
Tap to rate this tab
# A B C D E F G H I J K L M N O P Q R S T U V W X Y Z