Song name
# A B C D E F G H I J K L M N O P Q R S T U V W X Y Z

Eli Young Band - Say Goodnight chords

Highlighted       Show chord diagrams
-------------------------------------------------------------------------------
                             Say Goodnight- Eli Young Band
-------------------------------------------------------------------------------
Tabbed by:Mike Elward

Tuning: Standard
[Chords]
I dont play the F as a Bar chord because it gives more of a full ring.
   C   [C/B]  [Am7] [F] [D7] [G] [D]
e|-x---------------------1---------------------------------------------------|
B|-1-----1------1----1---3---------------------------------------------------|
G|-------------------2---2---------------------------------------------------|
D|-2------------2----3-------------------------------------------------------|
A|-3-----2-----------3-------------------------------------------------------|
E|---------------------------------------------------------------------------|

Intro
C C/B C C/B
C                         C/B
The sun still hangin' in the sky
C                         C/B
And the world is wide awake outside
C/B    Am7          G            D
And I know there's things we need to do
F
But I just want to draw the blinds and...

C
Say goodnight
C/B                   Am7
Oh won't you let me pull you into me
C/B                      D
Go wherever all these kisses lead
D7
Turn down the bed
F
Turn out the lights and
     C           C/B
Say goodnight

C                   C/B
What's the point of trying to pretend
C                   C/B
That we don't want to just give in
        Am7       G         D
Why are we holdin' onto this day
F
Let's just let it fade away and
     C
Say goodnight
C/B                   Am7
Oh won't you let me pull you into me
C/B                   D
Go wherever all these kisses lead
D7
Turn down the bed
F
Turn out the lights and
Say goodnight
C    C/B    C  C/b

F
Baby I don't want to wait
F
I just want to hear you
       C
Say Goodnight
   C/B                   Am7
Oh won't you let me pull you into me
C/B                   D
Go wherever all these kisses lead
D7
Turn down the bed
F
Turn out the lights and
        C          C/B
Say goodnight
        C          C/B
Say goodnight
C   C/B   C   C/B
************************************

| /   slide up
| \   slide down
| h   hammer-on
| p   pull-off
| ~   vibrato
| +   harmonic
| x   Mute note
| b   Bend
| pb  Pre-bend
| br  Bend release
| pbr Pre-bend release
| brb Bend release bend

************************************
Tap to rate this tab
# A B C D E F G H I J K L M N O P Q R S T U V W X Y Z