Song name
# A B C D E F G H I J K L M N O P Q R S T U V W X Y Z

Eli Young Band - When It Rains tab

When It Rains
Paramore
Riot!
Tuning: Standart

|========================|
|      LEAD GUITAR       |
|Capo 3rd Fret, w/ Delay |
|========================|

INTRO (not relative to capo)
e|------------------11---11---13---15---------11---11------------|
B|-4-----4-----9s11----11---11---11---11---11----11---11--9-11-8-|
G|-5-----5-------------------------------------------------------|
D|---------------------------------------------------------------|
A|---------------------------------------------------------------|
E|---------------------------------------------------------------|

e|----11---11---13---15---------11---11-------------0--|
B|--11---11---11---11---11---11----11---11--9-11-8--1--|
G|--------------------------------------------------0--|
D|--------------------------------------------------2--|
A|--------------------------------------------------3--|
E|-----------------------------------------------------|

VERSE 1
             Am
And when it rains
                F               C
On this side of town it touches 
       Am
Everything
              F               C
Just say it again and mean it

e|-----------------000000000000000-----------------00000000--------------|
B|--11111111111111-----------------111111111111111-----------------------|
G|------------------------------------------------------------444444-00--|
D|-----------------------------------------------------------------------|
A|-----------------------------------------------------------------------|
E|-----------------------------------------------------------------------|

CHORUS
e|------11---11---13---15---------11---11------------|
B|-9s11----11---11---11---11---11----11---11--9-11-8-|
G|---------------------------------------------------|
D|---------------------------------------------------|
A|---------------------------------------------------|
E|---------------------------------------------------|

e|----11---11---13---15---------11---11-------------0--|
B|--11---11---11---11---11---11----11---11--9-11-8--1--|
G|--------------------------------------------------0--|
D|--------------------------------------------------2--|
A|--------------------------------------------------3--|
E|-----------------------------------------------------|

INTERLUDE
e|-----|
B|--4--|
G|--5--|
D|-----|
A|-----|
E|-----|

VERSE 2
             Am
And when it rains
               F              C
You'll always find and escape
              Am
Just running away
                F                C
From all of the ones who love you

e|-----------------000000000000000-----------------00000000--------------|
B|--11111111111111-----------------111111111111111-----------------------|
G|------------------------------------------------------------444444-00--|
D|-----------------------------------------------------------------------|
A|-----------------------------------------------------------------------|
E|-----------------------------------------------------------------------|

CHORUS
e|------11---11---13---15---------11---11------------|
B|-9s11----11---11---11---11---11----11---11--9-11-8-|
G|---------------------------------------------------|
D|---------------------------------------------------|
A|---------------------------------------------------|
E|---------------------------------------------------|

e|----11---11---13---15---------11---11-------------|
B|--11---11---11---11---11---11----11---11--9-11-8--|
G|--------------------------------------------------|
D|--------------------------------------------------|
A|--------------------------------------------------|
E|--------------------------------------------------|

BRIDGE
e|--------11-------11------------------|
B|--11------11-------11-----------6-8--|
G|-------------------------10---8------|
D|-------------------------------------| x3
A|-------------------------------------|
E|-------------------------------------|

e|--------11-------11------------------|
B|--11------11-------11-----13---------|
G|-----------------------------12--13--|
D|-------------------------------------|
A|-------------------------------------|
E|-------------------------------------|

CHORUS
e|------11---11---13---15---------11---11------------|
B|-9s11----11---11---11---11---11----11---11--9-11-8-|
G|---------------------------------------------------|
D|---------------------------------------------------| x3
A|---------------------------------------------------|
E|---------------------------------------------------|

ENDING
e|--13-13-13-13-13-13-15-15-15-15-15-15-15--15-13-11-|
B|---------------------------------------------------|
G|---------------------------------------------------|
D|---------------------------------------------------|
A|---------------------------------------------------|
E|---------------------------------------------------|

//////////////////////////////////////////////////////

|========================|
|     RHYTHM GUITAR      |
|     Capo 3rd Fret      |
|========================|
INTRO
00:08
e|----------------------------------------|
B|----------------------------------------|
G|---------------5555---------------------|
D|--33333333-777-5555--33333333-777-7777--|
A|--33333333-777-3333--33333333-777-7777--|
E|--11111111-555-------11111111-333-5555--|

e|----------------------------------------|
B|----------------------------------------|
G|---------------5555---------------------|
D|--33333333-777-5555--33333333-777-7777--|
A|--33333333-777-3333--33333333-777-7777--|
E|--11111111-555-------11111111-333-5555--|

e|--------------------|
B|--------------------|
G|--5555555555555555--|
D|--5555555555555555--|
A|--3333333333333333--|
E|--------------------|
PM  ................

VERSE 1
e|-----------------------------------------------------------------------|
B|-----------------------------------------------------------------------|
G|---------------------------5555555---------------------------55555555--|
D|--7777777777777777-3333333-5555555-7777777777777777-33333333-55555555--|
A|--7777777777777777-3333333-3333333-7777777777777777-33333333-33333333--|
E|--5555555555555555-1111111---------5555555555555555-11111111-----------|
PM  ...................................................................

                 F
We don't miss a thing 
                                               C
You made yourself a bed at the bottom of the blackest hole
    F                                                C               G
Convince yourself that it's not the reason you don't see the sun anymore


CHORUS
e|----------------------------------------|
B|----------------------------------------|
G|---------------5555---------------------|
D|--33333333-777-5555--33333333-777-7777--|
A|--33333333-777-3333--33333333-777-7777--|
E|--11111111-555-------11111111-333-5555--|

e|----------------------------------------|
B|----------------------------------------|
G|---------------5555---------------------|
D|--33333333-777-5555--33333333-777-7777--|
A|--33333333-777-3333--33333333-777-7777--|
E|--11111111-555-------11111111-333-5555--|

e|--------------------|
B|--------------------|
G|--5555555555555555--|
D|--5555555555555555--|
A|--3333333333333333--|
E|--------------------|


VERSE 2
e|-----------------------------------------------------------------------|
B|-----------------------------------------------------------------------|
G|---------------------------5555555---------------------------55555555--|
D|--7777777777777777-3333333-5555555-7777777777777777-33333333-55555555--|
A|--7777777777777777-3333333-3333333-7777777777777777-33333333-33333333--|
E|--5555555555555555-1111111---------5555555555555555-11111111-----------|
PM  ...................................................................

           F
From everything 
                                               C
You made yourself a bed at the bottom of the blackest hole
           F                                           C               G
And you'1l speak to me you'll say that you don't wanna see the sun anymore


CHORUS
e|----------------------------------------|
B|----------------------------------------|
G|---------------5555---------------------|
D|--33333333-777-5555--33333333-777-7777--|
A|--33333333-777-3333--33333333-777-7777--|
E|--11111111-555-------11111111-333-5555--|

e|----------------------------------------|
B|----------------------------------------|
G|---------------5555---------------------|
D|--33333333-777-5555--33333333-777-7777--|
A|--33333333-777-3333--33333333-777-7777--|
E|--11111111-555-------11111111-333-5555--|

BRIDGE
e|---------------------------------------|
B|---------------------------------------|
G|---------------------------------------|
D|--77777777-55555555-333333333333-2222--|
A|--77777777-55555555-333333333333-2222--|
E|--55555555-33333333-111111111111-0000--|

e|---------------------------------------|
B|---------------------------------------|
G|---------------------------------------|
D|--77777777-55555555-333333333333-2222--|
A|--77777777-55555555-333333333333-2222--|
E|--55555555-33333333-111111111111-0000--|

e|-----------------------------------------|
B|-----------------------------------------|
G|----------------------------------3-3-3--|
D|--77777777-55555555-333333333333--3-3-3--|
A|--77777777-55555555-333333333333--1-1-1--|
E|--55555555-33333333-111111111111---------|


CHORUS

e|----------------------------------------|
B|----------------------------------------|
G|---------------5555---------------------|
D|--33333333-777-5555--33333333-777-7777--| x4
A|--33333333-777-3333--33333333-777-7777--|
E|--11111111-555-------11111111-333-5555--|


ENDING
e|---------------|
B|---------------|
G|-----5---------|
D|--3--5--3-3-3--| 
A|--3--3--3-3-3--|
E|--1-----1-1-1--|

 __________________
/      CHORDS      \
|(relative to capo)|
|------------------|
|   F     | 133211 |
|   C     | x32010 |
|   G     | 355433 |
|  Am     | x02210 |
 \________|_______/
Tap to rate this tab
# A B C D E F G H I J K L M N O P Q R S T U V W X Y Z