Song name
# A B C D E F G H I J K L M N O P Q R S T U V W X Y Z

Elias Viljanen - Northern Storm tab

Artist: Elias Viljanen
Song: Northern Storm
Tuning: Half step down; eb,Bb,Gb,Db,Ab,Eb
Album: The Leadstar
Tabbed by:camillamazilla


Those /-3-\ I've put above some notes are 3 tuplets. So notes under the mark are played 
faster than sixteenth notes.


  eb|-7-0-8-0-5-7-0-3-5-0-2-0-3-0-2-3--|
  Bb|----------------------------------|
  Gb|----------------------------------|
  Db|----------------------------------| Guitar 1
  Ab|----------------------------------|
  Eb|----------------------------------|
    |                                  |
    |                                  |
  eb|----------------------------------|
  Bb|----------------------------------|
  Gb|----------------------------------| Guitar 2
  Db|-2--------------------------------|
  Ab|-2--------------------------------|
  Eb|-0--------------------------------|


                              /-3-\  /--3--\

  eb|-7-0-8-0-5-7-0-3-5-0-2-0-10-8-7---------|
  Bb|--------------------------------10-8-7--|
  Gb|----------------------------------------|
  Db|----------------------------------------| Guitar 1
  Ab|----------------------------------------|
  Eb|----------------------------------------|
    |                                        |
    |                           /----3----\  |
  eb|----------------------------------------|
  Bb|----------------------------------------|
  Gb|----------------------------------------|
  Db|-2-------------------------7-7-7-7-7-7--| Guitar 2
  Ab|-2-------------------------5-5-5-5-5-5--|
  Eb|-0--------------------------------------|

  eb|-7-0-8-0-5-7-0-3-5-0-2-0-3-0-2-3--|
  Bb|----------------------------------|
  Gb|----------------------------------|
  Db|----------------------------------| Guitar 1
  Ab|----------------------------------|
  Eb|----------------------------------|
    |                                  |
    |                                  |
  eb|----------------------------------|
  Bb|----------------------------------|
  Gb|----------------------------------| Guitar 2
  Db|-5--------------------------------|
  Ab|-3--------------------------------|
  Eb|----------------------------------|

                      /-3-\ /-3-\ /-3-\  /-3-\
  eb|-7-0-8-0-5-7-0-3-------5-7-8--------7-8-10------------|
  Bb|-----------------5-7-8-------7-8-10-------------------|
  Gb|------------------------------------------------------|
  Db|------------------------------------------------------| Guitar 1
  Ab|------------------------------------------------------|
  Eb|------------------------------------------------------|
    |                                                      |
    |                 /-3-\ /-3-\ /-3-\  /-3-\             |
  eb|------------------------------------------------------|
  Bb|------------------------------------------------------|
  Gb|------------------------------------------------------|
  Db|-2----------------------------------------------------| Guitar 2
  Ab|-2---------------3-3-3-3-3-3-5-5-5.-5-5-5.------------|
  Eb|-0----------------------------------------------------|


  eb|-7-0-8-0-5-7-0-3-5-0-2-0-3-0-2-3--|
  Bb|----------------------------------|
  Gb|----------------------------------|
  Db|----------------------------------| Guitar 1
  Ab|----------------------------------|
  Eb|----------------------------------|
    |                                  |
    |                                  |
  eb|----------------------------------|
  Bb|----------------------------------|
  Gb|----------------------------------| Guitar 2
  Db|-2--------------------------------|
  Ab|-2--------------------------------|
  Eb|-0--------------------------------|


                              /-3-\  /--3--\

  eb|-7-0-8-0-5-7-0-3-5-0-2-0-10-8-7---------|
  Bb|--------------------------------10-8-7--|
  Gb|----------------------------------------|
  Db|----------------------------------------| Guitar 1
  Ab|----------------------------------------|
  Eb|----------------------------------------|
    |                                        |
    |                           /----3----\  |
  eb|----------------------------------------|
  Bb|----------------------------------------|
  Gb|----------------------------------------|
  Db|-2-------------------------7-7-7-7-7-7--| Guitar 2
  Ab|-2-------------------------5-5-5-5-5-5--|
  Eb|-0--------------------------------------|

  eb|-7-0-8-0-5-7-0-3-5-0-2-0-3-0-2-3--|
  Bb|----------------------------------|
  Gb|----------------------------------|
  Db|----------------------------------| Guitar 1
  Ab|----------------------------------|
  Eb|----------------------------------|
    |                                  |
    |                                  |
  eb|----------------------------------|
  Bb|----------------------------------|
  Gb|----------------------------------| Guitar 2
  Db|-5--------------------------------|
  Ab|-3--------------------------------|
  Eb|----------------------------------|

                      /--3--\ /--3--\   /--3--\  /--3--\
  eb|-7-0-8-0-5-7-0-3---------5.-7.-8-----------7.--8-10-|-12---|
  Bb|-----------------5.-7.-8-----------7.-8.-10---------|------|
  Gb|----------------------------------------------------|------|
  Db|----------------------------------------------------|------| Guitar 1
  Ab|----------------------------------------------------|------|
  Eb|----------------------------------------------------|------|
    |                                                    |      |
    |                 /--3--\  /--3--\  /--3--\  /--3--\ |      |
  eb|--------------------------12-14-15---------14-15-17-|-19---|
  Bb|-----------------12-14-15----------14-15-17---------|------|
  Gb|----------------------------------------------------|------|
  Db|-2--------------------------------------------------|------| Guitar 2
  Ab|-2--------------------------------------------------|------|
  Eb|-0--------------------------------------------------|------|
Tap to rate this tab
# A B C D E F G H I J K L M N O P Q R S T U V W X Y Z