Song name
# A B C D E F G H I J K L M N O P Q R S T U V W X Y Z

Elias - All We Want tab

Guitar Standard Tuning
E A D G B E
Capo 4th Fret

Intro (piano part)
G   Bb   C   F      i think...

Leading to verse...

-----------------|
-----------------|
--------0--------| X8
-----2-----------|
--0--------------|
-----------------|
Pre-Verse
-----------------------------------|
-----------------------------------|
--7p-5-5--2p-0-0-------------------|
-----------------2p-0-0------------|
------------------------3p-0-0-----|
-----------------------------------|
                                     X2
-----------------------------------|
-----------------------------------|
--7p-5-5--2p-0-0------------0------|
-----------------2p-0-0------------|
------------------------3\5--------|
-----------------------------------|

Chorus
-----------------------------------|
-----------------------------------|
-----------------------------------|
-----3--------5-----3--------------|
--5--1--3-----3--3--1--------------|
--3-----1--------1-----------------|

Ends On
-----------------------------------|
-----------------------------------|
-----------------------------------|
-------------5---------------------|
-------------3---------------------|
-----------------------------------|
Tap to rate this tab
 
# A B C D E F G H I J K L M N O P Q R S T U V W X Y Z