Song name
# A B C D E F G H I J K L M N O P Q R S T U V W X Y Z

Elin Gaustad - Confessional Song tab

This is a beautiful song by Elin. She is an norwegian artists which is very talented.
This is probably not the correct way to play it, 
since ive added _SOME_ things which makes it... well.. more to my playstyle,
 but mostly it is the same.

Hope you like it. 

Again: This is how I play it. I would have posted her way if i remembered it. But 
its basically the same !

hold det "h's" abit long.
Please comment:)

Verse: Same every verse. Intro is also the same.

e|-------0h2--------------0h2---2-3--------3---------------0----------|
B|-----3----3---3-------3-----3---3------3-----3---------3---3--------|
G|---0--------0-------2----------------0-----0---0-----0-------0----0-|
D|-2----------------0-------------------------------------------------|
A|-----------------------------------2---------------3------------3---|
E|--------------------------------------------------------------------|

Chorus:

e|-------0----------------0---------------3--------------0h2----------|
B|-----1-----1----------0-----0---------3-----3--------3------3-------|
G|---2-----2---2------0-----0---0-----0-----0---0----2------2---2-----|
D|-------------------------------------------------0------------------|
A|-0------------------------------------------------------------------|
E|-----------------0----------------3---------------------------------|

e|-------0----------------0---------------3--------------0h2---2h3----|
B|-----1-----1----------0-----0---------3-----3--------3-----3--------|
G|---2-----2---2------0-----0---0-----0-----0---0----2----------------|
D|-------------------------------------------------0------------------|
A|-0------------------------------------------------------------------|
E|-----------------0----------------3---------------------------------|

aaaand start with verses :)

Thank you !
Tap to rate this tab
# A B C D E F G H I J K L M N O P Q R S T U V W X Y Z