Song name
# A B C D E F G H I J K L M N O P Q R S T U V W X Y Z

Elio E Le Storie Tese - Tapparella tab

From a Tab book i've got...i've added the lyrics below...enjoy! :D

Author/Artist: Elio e le Storie Tese
Title: Tapparella
Album: EAT THE PHIKIS

Legenda:

p: Pull Off
h: Hammer On
b: Bend String Up
r: Release Bend
v: Vibrato
/: Slide Up
\: Slide Down

-----------------------------------------------------------------------------------------------

-----------------------------------------------------------------------------------------------

-|----------------3------------------------------------------------3----------|
-|----------------3--------7-----------------------------------------3--------|
-|-----2h4p2------0-0------7h9p7--------7----------7-------2h4p2-------0------|
-|---2-2----4p2----------7-7----9p7------------------------2------------------|
-|-0------------------7/9-----------7/9---9p7\5-7/9--9\--0---------------7/9--|
-|--------------3------------------------------------------------3------------|
  Uollaaa...


---------------|---------------3----------------------------------------------|
---------------|-----------------3---------7----------------------------------|
-7v------7--77-|---2h4p2-----------0-------7h9p7-------7---------7----2h4p2---|
-7v------7--77-|---2-----4p2-------------7-7----9p7-------------------2-------|
-----8/9-------|-0-------------------7/9------------7/9-9p7\5-7/9-9\-0--------|
---------------|-------------3------------------------------------------------|
                Brufolazzi tapparella giu' e poltiglia piu' ascella
purificata

------------------------------------------------------|---------------------3-|
---------------------------7-----------------------7\-|---------------------3-|
-------6-------------7-----7-----------------------7\-|-----------2h4p2-----0-|
-----6---------------7-----6-----------------------6\-|-----------2-----------|
-7/8-----------------5-----7-----------------------7\-|---------0-------------|
------------------------------------------------------|-----------------3-----|
 Ti ricordi che meraviglia la festa della medie         Tu non vieni, non


------------------------------------------------------------------------------|
-------------------------7----------------------------------------------------|
-------------------------7h9p7----7-9b11b9p7-----7---2h4p2----------6---------|
-----------------------7-7-----9p7-----------9-7-----2----------6-------------|
-------------------7/9-----------------------------0-------7/8----------------|
------------------------------------------------------------------------------|
 importa  sai c'avevo judo, ma se serve vi porto i dischi, cosi' potrete


--------------------0-----2--------------------0------------------------------|
--------------------0-----2--------------------1------------------------------|
--------------------1-----2--------------------2---------------------9h11p9---|
-------------4------0-----0--------------------3-------------------9-9--------|
-------------4------2--------------------------0--------------9/11------------|
-------------2------0---------------------------------------------------------|
 ballare i lenti, Porta pure ma non entri!       Ma perche' siete cosi', io


----------------------------------------------------------3-------------3-----|
----------------------------------------------------------3---4---------4-----|
----------1212h1412---------------------------8-8h10-8----3---5---------5-----|
-11p9-----1212---12-------11h12-11h12-11------8-8----8--55----6---------5-----|
-----12/14----------11/12-12----12----12---6------------55----6---------3-----|
--------------------------------------------------------33----4---------------|
 che credevo, io che speravo,               partecipero' mi auto invitero';


-----------------------------------------|------------------------------------|
--3--------------------------------------|------------------------------------|
--3----------------------5------66666665-|------------------------------------|
--3----------------------6---------------|------------------------------------|
--1----------------------6---------------|------------------------------------|
-------------------------4---------------|------------------------------------|
 dannata festa delle medie                  (Little gutar solo with wah)

--------------------------------------------|---------------10--------1010\---|
--------------------------12/14--14/14\12---|---------------10--------1010----|
----------5/6--7--9--9----------------------|-----2h4p2-----------------------|
----------6/7--7--7--9----12/14--12/14\12---|-----2----------------7----------|
--------------------------------------------|---0--------------7/9------------|
--------------------------------------------|------------3--------------------|
 solito riff e poi                            Mi presento, haurgh!, Ciao


------------------------------------------------------------------------------|
--7---------------------------------------------------------------------------|
--9b11br9b11b9p7---------------------2h4p2-------------6----------------------|
-------------------------------------2--------------6---------------4---------|
-----------------------------------0------------7/9-----------------4---------|
--------------------------------------------------------------------2---------|
 ragazzi! Faccio un vento e vi cambio il clima, temporeggio bevendo spuma;
MI-

----------2--------------------------3---3333----2----------------------------|
----------2--------------------------2---2222----2----------------------------|
----------0--------------------------0---0000----2----------------------------|
----------0--------------------------0---0000-44-------------------2--2-------|
----------2--------------------------2---2222-44-------------------2--2-------|
----------3--------------------------3---3333-22-------------------0--0-------|
 chiedo Fonzie e mi danno avanzi, perche'? Parapiglia, scatta il gioco

       Cristo
-----0--------2-----------12---------------------7----------------------------|
-----0--------3-----------12---------------------7----------------------------|
-----1--------2-----------13---------------------6----------------------------|
-----2----0-0--------------------------9-9-------9------------------7--7------|
-------------------14-14---------------9-9-------9------------------7--7------|
-------------------12-12---------------7-7-------7------------------5--5------|
 della bottiglia,se avro' culo potro', tu non giochi, baciare, abbiam fatto


-------5----------------9---------------------------------7-------------------|
-------5----------------9----------5----7-----------------7-------------------|
-------6----------------9---------------------------------8-------------------|
-------7---------11-11--11------4/6--6/8-------9---9------9-------------------|
-------7---------11-11--11---------------------9---9------9-------------------|
-------5---------9--9---9----------------------7---7------7-------------------|
 le squadre prima, palpare, ma se aspetti tra un po' finiamo, amare, si' va


---------------------4--------0?-----------------0----------------------------|
-----9-8-------------4----9---0?-----------------1----------------------------|
----9--8-------------4----9---1?-----------------2---------------9-9h11-9-----|
---8-----------------6----9---2?-----------------3---------------9-9----9-----|
--9------------------6----9---2?-----------------0-----------9/11-------------|
---------------------4--------0?----------------------------------------------|
 be' pero' poi balliamo, NON CI ROMPERE I COGLIONI; Sul piatto gira un


-------------------------------------------------0----------------------------|
-------------------------------------------------1----------------------------|
-------------------12-12h14-12-------------------2--------12-12h14-12-----8---|
-------------------12-12----12--------11h121211--3--------12-12----12-----8---|
-------------12/14--------------11/12-12---1212--0--12/14-----------------6---|
------------------------------------------------------------------------------|
 geghege', danzo da solo e me ne vanto, fantastico zimbello io,       non


--------------------------3-------6------------------4---|--------------------|
-8------3----------4------4-------6------------------4---|--------------------|
-8------3----------5------5-------7------------------5---|-6666665------------|
-8------5----6-6---6------5-------8------------------6---|--------------------|
-6-5-5--5----6-6---6------3-------8------------------6---|--------------------|
---3-3-------4-4------------------6------------------4---|--------------------|
 consumero', non deglutiro', questa amarissima aranciata.


------------------------------------------------------------------12-14b16r14p-|
-------17----19b21b21r19-17-------17-19-17b19r17----------------13-------------|
-14/16----16----------------18b19----------------18b21-17\-10/12---------------|
-------------------------------------------------------------------------------|
-------------------------------------------------------------------------------|
-------------------------------------------------------------------------------|
 (GUITAR SOLO)


12------------------------------------16-20-20b21---b21r20-17-----------------|
-------13-----------------------16-19-------------------------19--------------|
----------14-13-----13-13-13/17----------------------------------17-----------|
--------------------------------------------------------------------17v-------|
------------------------------------------------------------------------------|
------------------------------------------------------------------------------|



------------------------------------------------------------------------------|
------------------------------------------------------------------------------|
------------------------------------------------------------------------------|
------------------------------------------------------------------------------|
-------------------------------------------------12-10-12-10---10-10-11--11---|
-------------------------------------------12-12-----------------------12-----|
 BASSO, BATTERIA e VOCI VARIE e ancora chitarra, ripetere questo riff per 4


-----|------------------------------------------------------------------------|
-----|------------------------------------------------------------------------|
-----|------------------------------2h4p2---------5h7p5-----------------------|
-----|------9h11p9----------------2-2-----------5-5-----7p5-------------------|
-----|-------------11p9-------3/4-----------5/7-------------------------------|
-12\-|--0---------------------------------------------------------------------|
 volte; Ballo lento no, ballo forte no, la bottiglia no, gioco scopa no,


------------------------------------------------------------------------------|
------------------------------------------------------------------------------|
---------9h11p9---------------9h11p9------------2h4-2--------5h7p5------------|
-------9-9------11p9--------9-9-----11p9------2-2---2------5-5-----7p5------9-|
---9/11----------------9/11---------------3/4----------5/7-------------9/11---|
------------------------------------------------------------------------------|
 amicizia no, convenienza no, cortesia no, ampio parcheggio no! Basta


------------------------------------------------------------------------------|
------------------------------------------------------------------------------|
-9h11p9-----------------------------------------------------------------------|
-9------11p9-----Ripetere fino allafine....-----------------------------------|
------------------------------------------------------------------------------|
------------------------------------------------------------------------------|
 questa festa insoddisfacente! Ma ne ho un'altra nella mia mente, una festa


 molto particolare dove saranno invitati tutti: molti amici, molti nemici e


 anche il PANINO! Forza Panino! Forza Panino! Forza Panino! Forza
Panino....
Tap to rate this tab
 
# A B C D E F G H I J K L M N O P Q R S T U V W X Y Z