Song name
# A B C D E F G H I J K L M N O P Q R S T U V W X Y Z

Eliza Doolittle - Rollerblades tab

Guitar Tab - Eliza Doolittle - Rollerblades

Intro

E|----------------|----------------|----------------|----------------||
B|--5---5---5---5-|--5---5---5---5-|--5---5---5---5-|--3---3---3---3-||
G|--5---5---5---5-|--4---4---4---4-|--3---3---3---3-|--2---2---2---2-|| Repeat 2
D|--5---5---5---5-|--5---5---5---5-|--5---5---5---5-|--3---3---3---3-||
A|--3---3---3---3-|--3---3---3---3-|--3---3---3---3-|--3---3---3---3-||
E|----------------|----------------|----------------|----------------||


Verse 1

E|----------------|----------------|----------------|----------------||
B|--5---5---5---5-|--5---5---5---5-|--5---5---5---5-|--3---3---3---3-||
G|--5---5---5---5-|--4---4---4---4-|--3---3---3---3-|--2---2---2---2-|| Repeat 2
D|--5---5---5---5-|--5---5---5---5-|--5---5---5---5-|--3---3---3---3-||
A|--3---3---3---3-|--3---3---3---3-|--3---3---3---3-|--3---3---3---3-||
E|----------------|----------------|----------------|----------------||

I know you say you're ready to change, But I need to get it down on paper
It's in your face you're ready to blame, The first guy in line to catch the train


E|----------------|----------------|----------------|----------------||
B|--1---1---1---1-|--1---1---1---1-|--1---1---1---1-|--1---1---1---1-||
G|--1---1---1---1-|--0---0---0---0-|--2---2---2---2-|--2---2---2---2-||
D|--3---3---3---3-|--2---2---2---2-|--3---3---3---3-|--3---3---3---3-||
A|--3---3---3---3-|--3---3---3---3-|--3---3---3---3-|--3---3---3---3-||
E|----------------|----------------|----------------|----------------||

I'll save your seat
'Cause you don't stand for what you preach

Chorus

E|----------------|----------------|----------------|----------------||
B|--5---5---5---5-|--5---5---5---5-|--5---5---5---5-|--3---3---3---3-||
G|--5---5---5---5-|--4---4---4---4-|--3---3---3---3-|--2---2---2---2-|| Repeat 2
D|--5---5---5---5-|--5---5---5---5-|--5---5---5---5-|--3---3---3---3-||
A|--3---3---3---3-|--3---3---3---3-|--3---3---3---3-|--3---3---3---3-||
E|----------------|----------------|----------------|----------------||

See you with a broken string, tell me what you really mean,
Do you know what you want?
While beating up on yesterday, I was on my rollerblades
Rolling on moving on

etc etc

This is a first bash that took about 10 minutes.  I had to do something as the tabs I'd 
seen previously were soooo wrong.
Tap to rate this tab
 
# A B C D E F G H I J K L M N O P Q R S T U V W X Y Z